скачать рок Русский рок от А до Я скачать рок
   
 
 
Навигация
Главная Истории групп Рок-библиотека Рок-календарь Рок-юмор mp3 Музыкальный софт Интересные ссылки Обратная связь Благодарности

Аккорды
А Б В Г Д Е
Ж З И К Л М
Н О П Р С Т
У Ф Х Ч Ш Ы
*
Э Ю Я 0-9
*

Таблица аккордов


GTP
А Б В Г Д Е
Ж З И К Л М
Н О П Р С Т
У Ф Х Ч Ш Ы
*
Э Ю Я 0-9
*

F.A.Q. по Guitar Pro 4


Опрос
Как давно вы слушаете русский рок?

 
Немного рекламы
 

 
Аккорды Кино - Мои друзья

Аккорды Кино - Мои друзья


Вступление:

Em(III) Hm Am
e|--3--3-----2--2-----0--0--|-----2/3--2--0-----|
H|--5--------3--------1-----|----------------3--|
G|--4--------4-----4--2-----|--2----------------|
D|--5-----5--4--------2-----|-------------------|
A|--------------------0-----|-------------------|
E|--------------------------|-------------------|

Em
e|-------0----0--0--0--0--|-------0----0--0--0--0--|
H|-------0----0--0--0--0--|-------0----0--0--0--0--|
G|-------0----0--0--0--0--|-------0----0--0--0--0--|
D|--2----2----2-----2-----|--2----2----2-----2-----|
A|--2---------------------|--2---------------------|
E|--0---------------------|--0---------------------|

Em(III) Hm Am
e|--3--3-----2--2-----0--0--|------/7--5--3--2--|-0--
B|--5--------3--------1-----|-------------------|----
G|--4--------4-----4--2-----|--2----------------|----
D|--5-----5--4--------2-----|------/5--4--2--0--|----
A|--------------------0-----|-------------------|----
E|--------------------------|-------------------|-0--

Em G Cm Hm D С Em
Пришёл домой, и как всегда опять один.
G Cm Hm D С D
Мой дом пустой, но зазвонит вдруг телефон,
Am C D Hm Cm
И будут в дверь стучать и с улицы кричать,
Hm C D Em(III) Hm Am Em
Что хватит спать и пьяный голос скажет: "Дай пожрать".

Припев:

Em D Em
Мои друзья всегда идут по жизни маршем,
D Hm Am Em Em(III) Hm Am Em
И остановки только у пивных ларьков.

Em G Cm Hm D C Em
Мой дом был пуст, теперь народу там полно,
G Cm Hm D C D
В который раз, мои друзья там пьют вино.
Am C D Hm Cm Hm
И кто-то занял туалет уже давно, разбив окно,
C D Em(III) Hm Am Em
А мне уже признаться всё равно.

Припев.

Em G Cm Hm D C Em
А я смеюсь хоть мне и не всегда смешно,
G Cm Hm D C
И очень злюсь, когда мне говорят
D Am C
Что жить вот так как я сейчас нельзя.
D Hm Cm Hm C D Em(III) Hm Am Em
Но почему? Ведь я живу, на это не ответить никому.

Припев.


Другие новости по теме:

  • Кино - Неизвестные записи. Диск 2. Квартирник. Ленинград. 1988 год скачать mp3
  • Аккорды ДДТ - Наполним небо добротой
  • Аккорды Сергей Шнуров - Super Good
  • Аккорды Владимир Высоцкий - Он не вернулся из боя
  • Аккорды Юлия Чичерина - Пожарные

  •  
     
     
    Популярные статьи
  • Дельфин - 97 01
  • Фаэтон - Знак проклятья

  •  
    Русский рок от "А" до "Я". 2010-2017