скачать рок Русский рок от А до Я скачать рок
   
 
 
Навигация
Главная Истории групп Рок-библиотека Рок-календарь Рок-юмор mp3 Музыкальный софт Интересные ссылки Обратная связь Благодарности

Аккорды
А Б В Г Д Е
Ж З И К Л М
Н О П Р С Т
У Ф Х Ч Ш Ы
*
Э Ю Я 0-9
*

Таблица аккордов


GTP
А Б В Г Д Е
Ж З И К Л М
Н О П Р С Т
У Ф Х Ч Ш Ы
*
Э Ю Я 0-9
*

F.A.Q. по Guitar Pro 4


Опрос
Как давно вы слушаете русский рок?

 
Немного рекламы
 

 
Аккорды Кино - Музыка волн

Аккорды Кино - Музыка волн


Вступление:

C Am
e|------------------------|------------------------|
H|------------------------|------------------------|
G|----------0-------0-----|------------------------|
D|-------0-------------0--|-------0--2-------2--0--|
A|--3------------3--------|--0------------0--------|
E|------------------------|------------------------|

F G
e|------------------------|-------------------|
H|------------------------|-------------------|
G|------------------------|-------------------|
D|-------0-------------0--|-------------------|
A|----------3-------3-----|-------------------|
E|--1------------1--------|--3----------------|

C Am
e|------------------------|------------------------|
H|------------------------|------------------------|
G|---------0--------0-----|------------------------|
D|------0--------------0--|-------0-------2--0-----|
A|--3------------3--------|--0-------0----------3--|
E|------------------------|------------------------|

F G
e|------------------------|-------------------|
H|------------------------|-------------------|
A|------------------------|-------------------|
D|-------0-------------0--|-------------------|
A|----------3-------3-----|-------------------|
E|--1------------1--------|--3----------------|

C Am F
Я вижу, как волны смывают следы на песке,
C Am F
Я слышу, как ветер поёт свою странную песню,
C Am F G
Я слышу, как струны деревьев играют её,
C G Am F G C Am F G
Музыку волн, музыку ветра.

C Am F
Здесь трудно сказать, что такое асфальт,
C Am F
Здесь трудно сказать, что такое машина,
C Am F G
Здесь нужно руками кидать воду вверх,
C G Am F G C Am F G
Музыка волн, музыка ветра.

C Am F
Кто из вас вспомнит о тех, кто сбился с дороги?
C Am F
Кто из вас вспомнит о тех, кто смеялся и пел?
C Am F G
Кто из вас вспомнит, чувствуя холод приклада,
C G Am F
Музыку волн, музыку ветра.
C G Am
Музыку волн, музыку ветра...


Другие новости по теме:

  • Аккорды Без Билета - Две лодки
  • Аккорды Мёртвые Дельфины - Музыка в огне
  • Аккорды Иван-Кайф - Танцы с волками
  • 7Б - Молодые ветра скачать mp3
  • Аккорды Белая Гвардия - Музыка

  •  
     
     
    Популярные статьи

     
    Русский рок от "А" до "Я". 2010-2017