скачать рок Русский рок от А до Я скачать рок
   
 
 
Навигация
Главная Истории групп Рок-библиотека Рок-календарь Рок-юмор mp3 Музыкальный софт Интересные ссылки Обратная связь Благодарности

Аккорды
А Б В Г Д Е
Ж З И К Л М
Н О П Р С Т
У Ф Х Ч Ш Ы
*
Э Ю Я 0-9
*

Таблица аккордов


GTP
А Б В Г Д Е
Ж З И К Л М
Н О П Р С Т
У Ф Х Ч Ш Ы
*
Э Ю Я 0-9
*

F.A.Q. по Guitar Pro 4


Опрос
Как давно вы слушаете русский рок?

 
Немного рекламы
 

 
Аккорды Кино - Пачка сигарет

Аккорды Кино - Пачка сигарет


Am C D Em
e|------|-7-5-----|-0-3-0---|-----5-2-|----------|
H|------|-----5---|-------1-|-3-------|----------|
G|--4/5-|-------5-|---------|---2-----|-5-4--4/5-|
D|------|---------|---------|-0-------|----------|
A|------|-0-------|-3-------|---------|----------|
E|------|---------|---------|---------|-0--------|

Am C D Em
e|-5-------|-3-------|---5-2---|----------|
H|---5---5-|---5-----|-3-------|-0--------|
G|-----5---|-----4-5-|-------5-|---0--4/5-|
D|---------|---------|-0-------|----------|
A|-0-------|-3-------|---------|----------|
E|---------|---------|---------|-0--------|

Am C D Em
e|-7-5-----|-0-3-0---|-----5-2-|----------|
H|-----5---|-------1-|-3-------|----------|
G|-------5-|---------|---2-----|-5-4--4/5-|
D|---------|---------|-0-------|----------|
A|-0-------|-3-------|---------|----------|
E|---------|---------|---------|-0--------|

Am C D Я сижу...
e|-5-------|-------------|-----2---|-----
H|---5---5-|---(7)-------|-----3---|-----
G|-----5---|-------(7)---|---2---2-|-----
D|---------|-------------|-0-------|-----
A|-0-------|-------------|---------|-----
E|---------|-8---------8-|---------|-0---

Em Am C D Em
Я сижу и смотрю в чужое небо из чужого окна,
Am C D Em
И не вижу ни одной знакомой звезды.
Am C D Em
Я ходил по всем дорогам и туда и сюда,
Am C D Em
Обернулся и не смог разглядеть следы.

Припев:

Am C D Em
Но если есть в кармане пачка сигарет,
Am C D Em
Значит всё не так уж плохо на сегодняшний день.
Am C D Em
И билет на самолёт с серебристым крылом,
Am C D Em
Что, взлетая, оставляет земле лишь тень.

Проигрыш:

Am C D Em
Am C D


Em Am C D Em
И никто не хотел быть виноватым без вина,
Am C D Em
И никто не хотел руками жар загребать.
Am C D Em
А без музыки и на миру смерть не красна,
Am C D Em
А без музыки не хочется пропадать.

Припев.

Проигрыш:

Am C D Em Am



Другие новости по теме:

  • Кино - Последний концерт. Лужники. 24 июня 1990 года скачать mp3
  • Аккорды Ышо-Ышо - Не плачь, подруга
  • Аккорды Чиж & Co - Менуэт
  • Аккорды Торба-на-Круче - Сигарет нет
  • Аккорды Юлия Чичерина - Почему?

  •  
     
     
    Популярные статьи

     
    Русский рок от "А" до "Я". 2010-2017