скачать рок Русский рок от А до Я скачать рок
   
 
 
Навигация
Главная Истории групп Рок-библиотека Рок-календарь Рок-юмор mp3 Музыкальный софт Интересные ссылки Обратная связь Благодарности

Аккорды
А Б В Г Д Е
Ж З И К Л М
Н О П Р С Т
У Ф Х Ч Ш Ы
*
Э Ю Я 0-9
*

Таблица аккордов


GTP
А Б В Г Д Е
Ж З И К Л М
Н О П Р С Т
У Ф Х Ч Ш Ы
*
Э Ю Я 0-9
*

F.A.Q. по Guitar Pro 4


Опрос
Как давно вы слушаете русский рок?

 
Немного рекламы
 

 
Аккорды Кино - Песня без слов

Аккорды Кино - Песня без слов


Am
e|----|-0----------------------|-0----------------------|
H|----|-------3----1-----0-1-3-|-------3-----1----0-1-3-|
G|--2-|----2-----2-----2-------|----2-----2-----2-------|
D|----|------------------------|------------------------|
A|----|-0----------------------|-0----------------------|
E|----|------------------------|------------------------|

G
e|--3----------------------|---------------------------|
H|--0----------------------|---------------------------|
G|--0--(играть аккорд G далее боем или перебором)----2-|
D|--0-----(по желанию для связности звучания)----------|
A|--2----------------------|---------------------------|
E|--3----------------------|---------------------------|

Dm
e|-0----------------------|-0----------------------|
H|-------3----1-----0-1-3-|-------3-----1----0-1-3-|
G|----2-----2-----2-------|----2-----2-----2-------|
D|-0----------------------|-0----------------------|
A|------------------------|------------------------|
E|------------------------|------------------------|

E F
e|--0-------------------------|-1-----------------------|
H|--0-------------------------|-1-----------------------|
G|--1--(играть как указано)---|-2--(играть как указано)-|
D|--2--(выше для аккорда G)---|-3--(выше для аккорда G)-|
A|--2-------------------------|-3-----------------------|
E|--0-------------------------|-1-----------------------|

Am
Песня без слов, ночь без сна,
G
Все в свое время - зима и весна,
Dm
Каждой звезде - свой неба кусок,
E F
Каждому морю - дождя глоток.
Am
Каждому яблоку - место упасть,
G
Каждому вору - возможность украсть,
Dm
Каждой собаке - палку и кость,
E F
И каждому волку - зубы и злость.

Припев:

E Am
Снова за окнами белый день,
E Am
День вызывает меня на бой.
G F
Я чувствую, закрывая глаза, -
E F Am G Dm E F
Весь мир идёт на меня войной.

Am
Если есть стадо - есть пастух,
G
Если есть тело - должен быть дух,
Dm
Если есть шаг - должен быть след,
E F
Если есть тьма - должен быть свет.
Am
Хочешь ли ты изменить этот мир,
G
Сможешь ли ты принять как есть,
Dm
Встать и выйти из ряда вон,
E F
Сесть на электрический стул или трон?

Припев.


Другие новости по теме:

  • Аккорды Кино - Ночь
  • Аккорды Виктор - Я живу...
  • Аккорды Воскресение - Есть у меня...
  • Аккорды Кино - Место для шага вперёд
  • Аккорды Кино - Мама, мы все сошли с ума

  •  
     
     
    Популярные статьи
  • ДДТ - История звука
  • Мы вышли из кино. Трибьют Кино
  • Браво - Бравоспектива
  • Тараканы! - Larger Than… LIVE 25th Anniversary Show (2CD)
  • Маша и Медведи - Мира война (Single)
  • Слот - 15 (The Best Of)
  • СерьГа - Приметы
  • 7Б - Солнцу решать

  •  
    Русский рок от "А" до "Я". 2010-2017