скачать рок Русский рок от А до Я скачать рок
   
 
 
Навигация
Главная Истории групп Рок-библиотека Рок-календарь Рок-юмор mp3 Музыкальный софт Интересные ссылки Обратная связь Благодарности

Аккорды
А Б В Г Д Е
Ж З И К Л М
Н О П Р С Т
У Ф Х Ч Ш Ы
*
Э Ю Я 0-9
*

Таблица аккордов


GTP
А Б В Г Д Е
Ж З И К Л М
Н О П Р С Т
У Ф Х Ч Ш Ы
*
Э Ю Я 0-9
*

F.A.Q. по Guitar Pro 4


Опрос
Как давно вы слушаете русский рок?

 
Немного рекламы
 

 
Аккорды Кино - Троллейбус

Аккорды Кино - Троллейбус


Em D C Em
e|----------|--------------|--------------|--------------|------------|
H|----------|--------------|--------------|--------------|------------|
G|----------|--------------|--------------|--------------|------------|
D|----------|-2------------|-0------------|--------------|------------|
A|------0-2-|----------0-2-|----------0-2-|-3--------0-2-|--------0-2-|
E|--0-3-----|------0-3-----|------0-3-----|------0-3-----|-0--0-3-----|

Em D C Em H7
e|--------------|--------------|--------------|------------|
H|--------------|--------------|--------------|------------|
G|--------------|--------------|--------------|------------|
D|-2------------|-0------------|--------------|------------|
A|----------0-2-|----------0-2-|-3--------0-2-|-----2---2--|
E|------0-3-----|------0-3-----|------0-3-----|-0----------|

Em Hm
Мое место слева, и я должен там сесть,
Am Em
Не пойму, почему мне так холодно здесь,
Hm
Я не знаком с соседом, хоть мы вместе уж год,
Am Em
И мы тонем, хотя каждый знает, где брод.
Am Em
И каждый с надеждой глядит в потолок
Am D G
Троллейбуса, который идёт на восток,
Am D G
Троллейбуса, который идёт на восток,
Am D Em D C Em Em D C Em H7
Троллейбуса, который…

Em Hm
Все люди - братья, мы - седьмая вода,
Am Em
И мы едем, не знаю, зачем и куда.
Hm
Мой сосед не может, он хочет уйти,
Am Em
Но не может уйти, он не знает пути,
Am Em
И вот мы гадаем, какой может быть прок
Am D G
В троллейбусе, который идёт на восток,
Am D G
В троллейбусе, который идёт на восток,
Am D Em D C Em Em D C Em H7
В троллейбусе, который…

Em Hm
В кабине нет шофёра, но троллейбус идёт,
Am Em
И мотор заржавел, но мы едем вперед,
Hm
Мы сидим не дыша, смотрим туда,
Am Em
Где на долю секунды показалась звезда,
Am Em
Мы молчим, но мы знаем, нам в этом помог,
Am D G
Троллейбус, который идёт на восток,
Am D G
Троллейбус, который идёт на восток,
Am D Em D C Em Em D C Em
Троллейбус, который…


Другие новости по теме:

  • Кино - Спасем Мир. Концерт в ЛДМ скачать mp3
  • Гражданская Оборона - Всё идёт по плану (Сборник) скачать mp3
  • Владимир Высоцкий - Идёт охота на волков... скачать mp3
  • Виктор Цой - Концерт в 344-й школе скачать mp3
  • Ногу Свело - Идем на Восток! скачать mp3

  •  
     
     
    Популярные статьи
  • Пилот - Двадцатничек!
  • Brutto - Рокі
  • 7000$ - Путь слабака или книга лишнего человека
  • Вадим Самойлов - На Берлин (Single)
  • КняZz - Узники долины снов
  • Зоя Ященко и группа Белая Гвардия - Венеция
  • Lumen - Хроника бешеных дней
  • Легион - Двойная звезда

  •  
    Русский рок от "А" до "Я". 2010-2017