скачать рок Русский рок от А до Я скачать рок
   
 
 
Навигация
Главная Истории групп Рок-библиотека Рок-календарь Рок-юмор mp3 Музыкальный софт Интересные ссылки Обратная связь Благодарности

Аккорды
А Б В Г Д Е
Ж З И К Л М
Н О П Р С Т
У Ф Х Ч Ш Ы
*
Э Ю Я 0-9
*

Таблица аккордов


GTP
А Б В Г Д Е
Ж З И К Л М
Н О П Р С Т
У Ф Х Ч Ш Ы
*
Э Ю Я 0-9
*

F.A.Q. по Guitar Pro 4


Опрос
Как давно вы слушаете русский рок?

 
Немного рекламы
 

 
Аккорды Элизиум - Куда теряется мечта?

Элизиум - Куда теряется мечта?



Вступление:

e|-------------------|-------------------|
H|-------------------|-------------------|
G|-------------------|-------------------|
D|---7--8--7--5--7---|---7--8--7--5--7---|
A|--5-5-5-5-5-5-5----|--5-5-5-5-5-5-5----|
E|-------------------|-------------------|

Труба:

d5 A#5 F5 C5 d5 A#5 F5 C5
e|----------------------------------------------------------|
H|----------------------------------------------------------|
G|---------5------------------------------------------------|
D|-7-0-7-8-0-8-7--7-7---8-7-5---7-0-7-8-0-8-7--7-7-5-8-7-5-|
A|----------------------------------------------------------|
E|----------------------------------------------------------|

D5 A#5 F5
В который раз мне снова не понять,
C5 D5
Куда теряется мечта,
D5 A#5 F5
Куда уходит молодость и страсть,
C5 D5
Где любовь и красота,
D5 A#5 F5
Куда уходит ночь,
C5 D5
Куда уходит день,
A#5 F5
Где лезвие ножа,
C5
Где свет, где тень.

Припев:

D5 A#5 F5 C5
Солнце окрасит весок багряной краской,
D5 A#5 F5 C5
Мир содрогнется, и быть больно перестанет,
D5 A#5 F5 C5
Я очарован 100 лет той прекрасной сказкой,
D5 A#5 F5 C5
Что словной зыбкий мираж в пустыне тает.

В который раз мечта,
И в сотый раз идет ко дну,
В который раз забрезжит свет любви,
И тут же канет в темноту
Как лето в Январе,
Как в решете вода,
Сжигает в топке дней свои года.

Припев.

D5 A#5 F5 C5
Ааааааааааааааааааа!


Другие новости по теме:

  • Элизиум - Мир, а не война скачать mp3
  • Аккорды Телевизор - Мечта самоубийцы
  • Элизиум - Рок-Планета скачать mp3
  • Элизиум - Космос скачать mp3
  • Аккорды Элизиум - Слезы-зеркала

  •  
     
     
    Популярные статьи
  • ДДТ - История звука
  • Мы вышли из кино. Трибьют Кино
  • Браво - Бравоспектива
  • Тараканы! - Larger Than… LIVE 25th Anniversary Show (2CD)
  • Слот - 15 (The Best Of)
  • Маша и Медведи - Мира война (Single)
  • СерьГа - Приметы
  • 7Б - Солнцу решать

  •  
    Русский рок от "А" до "Я". 2010-2017