скачать рок Русский рок от А до Я скачать рок
   
 
 
Навигация
Главная Истории групп Рок-библиотека Рок-календарь Рок-юмор mp3 Музыкальный софт Интересные ссылки Обратная связь Благодарности

Аккорды
А Б В Г Д Е
Ж З И К Л М
Н О П Р С Т
У Ф Х Ч Ш Ы
*
Э Ю Я 0-9
*

Таблица аккордов


GTP
А Б В Г Д Е
Ж З И К Л М
Н О П Р С Т
У Ф Х Ч Ш Ы
*
Э Ю Я 0-9
*

F.A.Q. по Guitar Pro 4


Опрос
Как давно вы слушаете русский рок?

 
Немного рекламы
 

 
Аккорды Ногу Свело - Из Алма-Аты

Аккорды Ногу Свело - Из Алма-Аты


Вступление:

e|-------6-10--10-8-6-8-6----10-8-6-8-6------5-6-----|
H|-8-8-8------------------8-------------8--8-----8-6-|

Gm Eb F Gm
В багаж ты не сдашь духи и лак,
Gm Eb F Gm
Тонгаш за кормой твой Чимбулак,
A# F A#
Ляжет лайнер на крыло,
Eb F
И мигнет красное табло.

Припев:

Gm
Из Алма-Аты
A# Eb
Ты ко мне летела,
A# Gm
Так меня хотела
Gm Eb F
Вновь увидеть ты.
Синие холмы,
Вспыхнут ярким светом,
И на месте этом,
Вырастут цветы.

Москва как всегда твой рейс ждала,
Закат степь почти уже спала,
Но раздался вой турбин,
И остался в небе черный дым...

Припев.

Соло:

D|---5--8-5-1-5-3-8-5----5--8-5-1-5-3-8-5-|
A|-5-------------------5------------------|
E|----------------------------------------|

D|--------------------------------|
A|-1-5-3-3-5-3-1--1-----1---------|
E|-------3-3---3-3-5-1------------|


Другие новости по теме:

  • Ногу Свело! - Обратная сторона ноги
  • Аккорды Ногу Свело - (Белые) Каллы
  • Ногу Свело - Откровенные фотографии скачать mp3
  • Ногу Свело - Бокс скачать mp3
  • Ногу Свело - Каллы скачать mp3

  •  
     
     
    Популярные статьи

     
    Русский рок от "А" до "Я". 2010-2017