скачать рок Русский рок от А до Я скачать рок
   
 
 
Навигация
Главная Истории групп Рок-библиотека Рок-календарь Рок-юмор mp3 Музыкальный софт Интересные ссылки Обратная связь Благодарности

Аккорды
А Б В Г Д Е
Ж З И К Л М
Н О П Р С Т
У Ф Х Ч Ш Ы
*
Э Ю Я 0-9
*

Таблица аккордов


GTP
А Б В Г Д Е
Ж З И К Л М
Н О П Р С Т
У Ф Х Ч Ш Ы
*
Э Ю Я 0-9
*

F.A.Q. по Guitar Pro 4


Опрос
Как давно вы слушаете русский рок?

 
Немного рекламы
 

 
Аккорды Кино - Кукушка

Аккорды Кино - Кукушка


Вступление:

Am C
e|--------0-----------------|-----0------------------|
H|--------1-----------------|-----1------------------|
G|-----2-----------2-----2--|--------0----------0----|
D|--------------2-----------|--2--------0--2---------|
A|--0--------3--------3-----|--3-----------3---------|
E|--------------------------|------------------------|

G
e|-----3-------------3-----|-------3-----------------|
H|-----0-------------0-----|-------0-----------------|
G|--------0-------------0--|----------0--------------|
D|--0----------------------|-------------------------|
A|-----------3--2----------|-------------3--2--0-----|
E|--3----------------------|--3-------------------3--|

Am C
e|--------0-----------------|-----0------------------|
H|--------1-----------------|-----1------------------|
G|-----2-----------2-----2--|--------0----------0----|
D|--------------2-----------|--2--------0--2---------|
A|--0--------3--------3-----|--3-----------3---------|
E|--------------------------|------------------------|

G
e|-----3-------------3-----|-------3-----------------|
H|-----0-------------0-----|-------0-----------------|
G|--------0-------------0--|----------0--------------|
D|--0----------------------|----------------------0--|
A|-----------3--2----------|-------------3--2--3-----|
E|--3----------------------|--3----------------------|

Am C
e|--------0-----------------|-----0------------------|
H|--------1-----------------|-----1------------------|
G|-----2-----------2-----2--|--------0----------0----|
D|--------------2-----------|--2--------0--2---------|
A|--0--------3--------3-----|--3-----------3---------|
E|--------------------------|------------------------|

G
e|-----3-------------3-----|-------3-----------------|
H|-----0-------------0-----|-------0-----------------|
G|--------0-------------0--|----------0--------------|
D|--0----------------------|-------------------------|
A|-----------3--2----------|-------------3--2--0-----|
E|--3----------------------|--3-------------------3--|

Am C
e|--------0-----------------|-----0------------------|
H|--------1-----------------|-----1------------------|
G|-----2-----------2-----2--|--------0----------0----|
D|--------------2-----------|--2--------0--2---------|
A|--0--------3--------3-----|--3-----------3---------|
E|--------------------------|------------------------|

G
e|-----3-------------3------|-------3----------------|
H|-----0-------------0------|-------0----------------|
G|--------0-------------0---|------------------2-----|
D|--0-----------------------|-------------2----------|
A|-----------3--2-----------|----------3-------------|
E|--3-----------------------|--3---------------------|

Am
Песен ещё не написанных, сколько
G Dm Am
Скажи, кукушка, пропой.
Am
В городе мне жить или на выселках,
G Dm Am
Камнем лежать или гореть звездой, звездой.

Припев:

G F Am
Солнце моё, взгляни на меня,
G F Am
Моя ладонь превратилась в кулак.
G F Am
И если есть порох, дай огня,
G F Am
Вот так…

Проигрыш:

Am C G Am C G


Am
Кто пойдёт по следу одинокому?
G Dm Am
Сильные да смелые головы сложили в поле, в бою.
Am
Мало кто остался в светлой памяти,
G Dm Am
В трезвом уме да с твёрдой рукой в строю, в строю.

Припев.

Проигрыш:

Am C G Am C G


Am
Где же ты теперь, воля вольная?
G Dm Am
С кем же ты теперь ласковый рассвет встречаешь, ответь.
Am
Хорошо с тобой да плохо без тебя,
G Dm Am
Голову да плечи терпеливые под плеть, под плеть.

Припев.

Проигрыш:

Am C G Am C G



Другие новости по теме:

  • Аккорды Декабрь - Без тебя
  • Аккорды Ленинград - У меня есть всё
  • Аккорды Чайф - В ее глазах
  • Аккорды Земфира - Кукушка
  • Аккорды Кино - Место для шага вперёд

  •  
     
     
    Популярные статьи

     
    Русский рок от "А" до "Я". 2010-2017