скачать рок Русский рок от А до Я скачать рок
   
 
 
Навигация
Главная Истории групп Рок-библиотека Рок-календарь Рок-юмор mp3 Музыкальный софт Интересные ссылки Обратная связь Благодарности

Аккорды
А Б В Г Д Е
Ж З И К Л М
Н О П Р С Т
У Ф Х Ч Ш Ы
*
Э Ю Я 0-9
*

Таблица аккордов


GTP
А Б В Г Д Е
Ж З И К Л М
Н О П Р С Т
У Ф Х Ч Ш Ы
*
Э Ю Я 0-9
*

F.A.Q. по Guitar Pro 4


Опрос
Как давно вы слушаете русский рок?

 
Немного рекламы
 

 
Аккорды Кино - Кончится лето

Аккорды Кино - Кончится лето


Вступление:

Em D
e|---3-3-3-3-3-3-2-0-|-----2-2-2-2-2-2-3-5-|
H|-0-----------------|-0-3-----------------|
G|-------------------|---------------------|
D|-------------------|---------------------|
A|-------------------|---------------------|
E|-------------------|---------------------|

Hm C Am D Em
e|-3---2-2-2-2-2-2-3-5-|-3---0-0-0-0-0-3-2-0-|----
H|---0-----------------|---1-----------------|-0--
G|---------------------|---------------------|----
D|---------------------|---------------------|----
A|---------------------|---------------------|----
E|---------------------|---------------------|----

Em
Я выключаю телевизор, я пишу тебе письмо,
Em
Про то, что больше не могу смотреть на дерьмо,
Am
Про то, что больше нет сил, про то, что я почти запил,
Em
Но не забыл тебя.
Em
Про то, что телефон звонил, хотел чтобы я встал,
Em
Оделся и пошёл, а точнее побежал,
Am
Но только я его послал, сказал, что болен и устал
Em
И эту ночь не спал.

Припев:

D C Em D C Em
Я жду ответа, больше надежд нету,
D C Em D C
Скоро кончится лето,
Em Em D Hm C Am D
Это…

Em
А с погодой повезло - дождь идёт четвёртый день,
Em
Хотя по радио сказали: жаркой будет даже тень,
Am
Но впрочем в той тени где я пока и сухо и тепло,
Em
Но я боюсь, пока!
Em
А дни идут чередом - день едим, а три пьём,
Em
И вообщем весело живём, хотя и дождь за окном.
Am
Магнитофон сломался, я сижу в тишине,
Em
Чему и рад вполне.

Припев.

Em
За окном идёт стройка, работает кран,
Em
И закрыт пятый год за углом ресторан.
Am
А на столе стоит банка, а в банке тюльпан,
Em
А на окне стакан.
Em
И так идут за годом год, так и жизнь пройдёт,
Em
И в сотый раз маслом вниз упадёт бутерброд,
Am
Но может будет хоть день, может будет хоть час
Em
Когда нам повезёт.

Припев.


Другие новости по теме:

  • Аккорды Без Билета - Танцуй
  • Аккорды Найк Борзов - Было, есть и будет
  • Аккорды Зоопарк - Лето
  • Аккорды Ляпис Трубецкой - Дождь льёт
  • Аккорды Кино - Красно-жёлтые дни

  •  
     
     
    Популярные статьи
  • ДДТ - История звука
  • Мы вышли из кино. Трибьют Кино
  • Браво - Бравоспектива
  • Тараканы! - Larger Than… LIVE 25th Anniversary Show (2CD)
  • Слот - 15 (The Best Of)
  • Маша и Медведи - Мира война (Single)
  • 7Б - Солнцу решать
  • СерьГа - Приметы

  •  
    Русский рок от "А" до "Я". 2010-2017