скачать рок Русский рок от А до Я скачать рок
   
 
 
Навигация
Главная Истории групп Рок-библиотека Рок-календарь Рок-юмор mp3 Музыкальный софт Интересные ссылки Обратная связь

Аккорды
А Б В Г Д Е
Ж З И К Л М
Н О П Р С Т
У Ф Х Ч Ш Ы
*
Э Ю Я 0-9
*

Таблица аккордов


GTP
А Б В Г Д Е
Ж З И К Л М
Н О П Р С Т
У Ф Х Ч Ш Ы
*
Э Ю Я 0-9
*

F.A.Q. по Guitar Pro 4


Опрос
Как давно вы слушаете русский рок?

 
Немного рекламы
 

 
Аккорды Кино - Восьмиклассница

Аккорды Кино - Восьмиклассница


Вступление:

Am Em
e|--(12)---------------------0--0--|
H|------(12)------(12)--(12)-------|
G|----------(12)-------------------|
D|---------------------------------|
A|---------------------------------|
E|---------------------------------|

Am Em C G
Пустынной улицей вдвоём, с тобой куда-то мы идём,
F G C
Я курю, а ты конфеты ешь.
Am Em C G
И светят фонари давно, ты говоришь: «Пойдём в кино»,
F G C Am
А я тебя зову в кабак, конечно.

Припев:

F G C Am
М-м-м восьмиклассница a-a
F G Am Em
М-м-м.

Am Em C G
Ты говоришь, что у тебя по географии трояк,
F G C
А мне на это просто наплевать.
Am Em C G
Ты говоришь из-за тебя там кто-то получил синяк.
F G C Am
Многозначительно молчу, и дальше мы идём гулять.

Припев.

Проигрыш:

Am Em Am Em
e|--(12)---------------------0--0--|--(12)------------------------0--|
H|------(12)------(12)--(12)-------|------(12)------(12)--(12)-------|
G|----------(12)-------------------|----------(12)-------------------|
D|---------------------------------|---------------------------------|
A|---------------------------------|---------------------------------|
E|---------------------------------|---------------------------------|

Am Em C G F G C Am Em C G
e|---5-7-8-7-5-/7-5-5---|---12-10-8-7-8--|---5-7-8-7-5-/7-5-5---|
H|----------------------|----------------|----------------------|
G|----------------------|----------------|----------------------|
D|----------------------|----------------|----------------------|
A|----------------------|----------------|----------------------|
E|----------------------|----------------|----------------------|

F G C(VIII)
e|---3-5-7---5-7--/8----|
H|----------------------|
G|----------------------|
D|----------------------|
A|----------------------|
E|----------------------|

Припев.

Am Em C G
Мамина помада, сапоги старшей сестры,
F G C
Мне легко с тобой, а ты гордишься мной.
Am Em C G
Ты любишь своих кукол и воздушные шары,
F G C Am
Но в десять ровно мама ждёт тебя домой.

Припев.



Другие новости по теме:

  • Оркестр Глобалис и Юрий Каспарян - Музыка Кино для оркестра
  • Аккорды Кино - Уходи
  • Аккорды Кино - Бездельник 1
  • Аккорды Ленинград - Группа крови
  • Аккорды Земфира - Искала

  •  
     
     

    Популярные статьи

     
    Русский рок от "А" до "Я". 2010