скачать рок Русский рок от А до Я скачать рок
   
 
 
Навигация
Главная Истории групп Рок-библиотека Рок-календарь Рок-юмор mp3 Музыкальный софт Интересные ссылки Обратная связь

Аккорды
А Б В Г Д Е
Ж З И К Л М
Н О П Р С Т
У Ф Х Ч Ш Ы
*
Э Ю Я 0-9
*

Таблица аккордов


GTP
А Б В Г Д Е
Ж З И К Л М
Н О П Р С Т
У Ф Х Ч Ш Ы
*
Э Ю Я 0-9
*

F.A.Q. по Guitar Pro 4


Опрос
Как давно вы слушаете русский рок?

 
Немного рекламы
 

 
Аккорды Король и Шут - Спятил отец

Аккорды Король и Шут - Спятил отец


D E A F#m D E A
e|-2----------------0---------------2--------------------|
H|----3-2--0--0-2-3----2-0------0-2----3-2--0--0-2-0-----|
G|-------------------------2--2----------------------2---|

A F#m Hm C#m E
e|--------9-7-------|--------9-7-------|--------9-7-------|
H|----10-------10---|----10-------10---|----10-------10---|

A F#m
Кругом одни дельцы, и не с кем детям поиграть,
Hm C#m E
А ведь у них уже давно потехи час,
Но вот пришёл отец и хочет уходить опять,
Они ему кричат: "Ну, посмотри на нас".

Припев:

D E A F#m
Спятил отец, а значит нам конец,
Hm E A F#m
Он всё это долго терпел.
D E A F#m
Вот так беда, спасайся кто куда,
Hm E A F#m
Его оторвали от дел.

A F#m A F#m Hm C#m E
А что ему до них - он очень важный человек,
Ведь подчинённых у него, как крыс.
К нему со всей душой, а он же - головою в снег,
К нему со всей душой, а он: "А ну-ка брысь".

Припев.

A F#m
e|------------------------0-2-------------|
H|---2--2--0--2--0-2--0-2------2--2--0-2--|
Hm C#m E
e|--------------------------0--0--0-------|
H|---3--3--2--3--2-3--0-2-3----------2-0--|
A F#m
e|------------------------0-2-------------|
H|---2--2--0--2--0-2--0-2------2--2--0-2--|
Hm C#m E
e|------------------------0-0-------------|
H|---3--3--2--3--2-3--2-3------3--2----0--|

Он в них кидает стулья, он ломает шалаши,
Он им грозится руки оторвать.
"Вы просто дьяволята, а никак не малыши,
Ну, довели папашу, вашу мать
".

Припев.



Другие новости по теме:

  • Аккорды Конец Фильма - Дембельская
  • Звуки Му - Петя - отец родной скачать mp3
  • Аккорды Разные люди - Ворон
  • Аккорды Аквариум – Таможенный блюз
  • Король и Шут - Акустический альбом скачать mp3

  •  
     
     

    Популярные статьи

     
    Русский рок от "А" до "Я". 2010