скачать рок Русский рок от А до Я скачать рок
   
 
 
Навигация
Главная Истории групп Рок-библиотека Рок-календарь Рок-юмор mp3 Музыкальный софт Интересные ссылки Обратная связь Благодарности

Аккорды
А Б В Г Д Е
Ж З И К Л М
Н О П Р С Т
У Ф Х Ч Ш Ы
*
Э Ю Я 0-9
*

Таблица аккордов


GTP
А Б В Г Д Е
Ж З И К Л М
Н О П Р С Т
У Ф Х Ч Ш Ы
*
Э Ю Я 0-9
*

F.A.Q. по Guitar Pro 4


Опрос
Как давно вы слушаете русский рок?

 
Немного рекламы
 

 
Аккорды Крематорий - Мусорный ветер

Аккорды Крематорий - Мусорный ветер


Em D C
e|-------------------------------------------------------|
H|-------------------------------------------------------|
G|--4---------------4--2-----------2--2--0-------------0-|
D|-----2--2--4--5---------4--0--4-----------2----0--2----|
A|---------------------------------------------3---------|
E|-------------------------------------------------------|

H7
e|-------------------|
H|-------------------|
G|-------------------|
D|--4--1----1--4--4--|
A|--------2----------|
E|-------------------|

Em D C
e|-------------------------------------------------------|
H|-------------------------------------------------------|
G|--4---------------4--2-----------2--2--0-------------0-|
D|-----2--2--4--5---------4--0--4-----------2----0--2----|
A|---------------------------------------------3---------|
E|-------------------------------------------------------|

H7 Em
e|---------------------------|
H|---------------------------|
G|---------------------------|
D|--4--1----1--4--4--5--4--2-|
A|--------2------------------|
E|---------------------------|

Em H7
Мусорный ветер, дым из трубы,
Em H7
Плач природы, крик сатаны,
C Am F#m
А все от того, что мы,
C Am F#m
Любили ловить ветра
H7 Em
И разбрасывать камни.

Песочный город построенный мной,
Давным-давно смыт волной,
Мой взгляд похож на твой,
В нем нет ничего кроме снов
И забытого счастья.

Припев:

Em Am D
Дым на небе, дым на земле
G Em
Вместо людей - машины,
Am D
Мертвые рыбы в иссохшей воде,
G Em
Зловонный зной пустыни.
C Am F#m
Моя смерть разрубит цепи зла,
H7 Em
Когда мы будем вместе.

Ты умна, а я идиот,
И неважно кто из нас раздает
Даже если мне повезет,
И в моей руке будет туз,
В твоей будет джокер.

Так не бойся милая ляг на снег,
Слепой художник напишет портрет,
Воспоет твои формы поэт,
И станет звездой актер
Бродячего цирка.

Припев.


Другие новости по теме:

  • Аккорды Юлия Чичерина - Ветер перемен
  • Аккорды Браво - Ветер знает
  • Аккорды Крематорий - Сексуальная кошка
  • Крематорий - Живые и мертвые скачать mp3
  • Аккорды 7Б - Знаю! Будет!

  •  
     
     
    Популярные статьи
  • 7Б - Солнцу решать
  • СерьГа - Приметы
  • Вадим Самойлов - Слова закончились (Single)
  • Сурганова и Оркестр - Парижская акустика
  • The Matrixx - Субкоманданте (Single)
  • Ольга Арефьева и Ковчег - Ангел и девочка
  • Мураками - Ипи (EP)
  • Павел Кашин - Талисман

  •  
    Русский рок от "А" до "Я". 2010-2017