скачать рок Русский рок от А до Я скачать рок
   
 
 
Навигация
Главная Истории групп Рок-библиотека Рок-календарь Рок-юмор mp3 Музыкальный софт Интересные ссылки Обратная связь Благодарности

Аккорды
А Б В Г Д Е
Ж З И К Л М
Н О П Р С Т
У Ф Х Ч Ш Ы
*
Э Ю Я 0-9
*

Таблица аккордов


GTP
А Б В Г Д Е
Ж З И К Л М
Н О П Р С Т
У Ф Х Ч Ш Ы
*
Э Ю Я 0-9
*

F.A.Q. по Guitar Pro 4


Опрос
Как давно вы слушаете русский рок?

 
Немного рекламы
 

 
Аккорды Маша и Медведи - Пленница

Аккорды Маша и Медведи - Пленница


Вступление:

Dm F A# Gm


H|-106---68-8^9-8^9-8^9-8^9--|

Dm F A#7 Gm
Открой мне окно, зайди в эти двери,
Предстань в образе любви.
Скажи мое имя, не дай мне поверить
И стань навсегда моим.

D|-7--7-5---7-8-----7--7-5---7----8787-|
A|--------8-----7----------8---8-------|

Возьми капли ливня и слей слезы моря,
Создай логово воды.
Начни с новой ноты, согни ключ минора,
Как мою линию судьбы.

Припев:

D5 F5 A#5 G5
Я пленница свободы,
Ты узник светлой тьмы.
Там склоны небосвода
Где обитаем мы.

Задень небо дланью, земные ладони
За день кругом обойди.
Сожми дрожь желаний, сомни холод молний,
И свой свет освободи.

Припев.

A#m F A A#m Dm F
Ты дальше той звезды, выше солнца и луны,
A#m F A5 A#5 D5 C5
Ты ближе, чем бойцы гибели напрасной.
A#5 F5 A5 A#5
Ты дальше, чем звезда, выше, чем моя тоска.

Соло:

H|-9^10--10----x-x-6---3-1---1-6-8-3-|
G|--------------2--------------------|

e|-/13^14-14-14-14-10------13--------|
H|---------6-8-----------------------|
G|-----------------12--12------------|

e|-13-12--7----13-12--7----15-12-7---|
H|-----------------------------------|
G|-----------------------------------|

e|-----------------------------------|
H|----10-----------------------------|
G|-10----10-9---------------------3--|
D|-10-5-3-0---0--3--5----------------|

Припев.


Другие новости по теме:

  • Маша и Медведи - Звёздная серия скачать mp3
  • Аккорды Маша и Медведи - Московская
  • Аккорды Маша и Медведи - Земно-неземная
  • Маша и Медведи - Куда? скачать mp3
  • Аккорды Маша и Медведи - Без тебя

  •  
     
     
    Популярные статьи
  • Дельфин - 97 01
  • Фаэтон - Знак проклятья

  •  
    Русский рок от "А" до "Я". 2010-2017