скачать рок Русский рок от А до Я скачать рок
   
 
 
Навигация
Главная Истории групп Рок-библиотека Рок-календарь Рок-юмор mp3 Музыкальный софт Интересные ссылки Обратная связь

Аккорды
А Б В Г Д Е
Ж З И К Л М
Н О П Р С Т
У Ф Х Ч Ш Ы
*
Э Ю Я 0-9
*

Таблица аккордов


GTP
А Б В Г Д Е
Ж З И К Л М
Н О П Р С Т
У Ф Х Ч Ш Ы
*
Э Ю Я 0-9
*

F.A.Q. по Guitar Pro 4


Опрос
Как давно вы слушаете русский рок?

 
Немного рекламы
 

 
Аккорды Наутилус Помпилиус - Гиброалтар-Лабрадор

Аккорды Наутилус Помпилиус - Гиброалтар-Лабрадор


Gаdd11
e|-------------7---|-------------7---|
H|-----8----9------|-----8----9------|
G|-10--------------|-10------------7-|
D|---12--10--12--10|---10--12--10----|

Gаdd11+
e|-------------7---|-------------7---|
H|-----8----9------|-----8----9------|
G|-10------------7-|-10------------7-|
D|---10--12--10----|---10--12--10----|


G6
e|-------------7---|-------------7---|
H|-----8----9------|-----8----9------|
G|-10--------------|-10------------7-|
D|---12--10--12--10|---10--12--10----|

G6
e|-------------7---|-------------7---|
H|-----8----9------|-----8----9------|
G|-10------------7-|-10------------7-|
D|---10--12--10----|---10--12--10----|

G
e|--------------|--------------|
H|-9-8----------|-9-8----------|
G|----10-8------|----10-8------|
D|--------9-12--|--------9-12--|

Сm G#7Mаj
Песню звонкую пропела,
Fm9+ B7
И на изгородь взлетела,
Сm G#7Mаj
Птица в белых кружевах,
(Сm(аdd11)) B G B G B G
И в шиншилловых мехах.

Припев:

Сm Fm9+ B7sus G
Гибралтар, Лабрадор,
СmFm9+
За окном крадется вор,
B7sus G
Лабрадор.

Если спелая малина,
Fm9+ B7 G
Почернела без причины,
И осыпалась кора,
B G B G
Значит - кончилась игра.

Припев:

Гибралтар, Лабрадор,
Из трубы свисает вор,
Лабрадор.

Соло:

Сm Fm9+ B7 G
H|---3-4----3-4-3----------------------------|
G|--5------5-----5-3------0-1-----0-1-0------|
D|-5------5---------6--3-3-----3-3------3-1-0|

H|---3-4----3-4-3----------------------------|---3-4|
G|--5------5-----5-3------0-1-----0-1-0------|--5---|
D|-5------5---------6--3-3-----3-3------3-1-0|-5----|

В желтом облаке Сансары,
Вертолет страдает старый,
Не поет, закрыв свой рот,
Виртуозный полиглот,

Припев:

Лабрадор, Гибралтар,
Начинается пожар,
Гибралтар.

Многоликие монголы,
Пьют карбидовые смолы,
Турки скачут по гробам,
Прямо в город Амстердам.

Припев:

Лабрадор, Гибралтар,
Закрывается ангар,
Гибралтар.

Соло:

H|-0--5-7--8--0--5-7--8--7--5-3--1--------------------------------------|
G|----------------------------------2--2-4--5--2--2-4--5--4--2--0--0----|
D|--------------------------------------------------------------------4-|



Другие новости по теме:

  • Вячеслав Бутусов - Русские звёзды скачать mp3
  • Вячеслав Бутусов - Лучшие песни. Новая коллекция скачать mp3
  • Вячеслав Бутусов - Большая российская музыкальная энциклопедия скачать mp3
  • Бутусов & Deadушки - Настасья скачать mp3
  • Вячеслав Бутусов - Избранное скачать mp3

  •  
     
     

    Популярные статьи

     
    Русский рок от "А" до "Я". 2010