скачать рок Русский рок от А до Я скачать рок
   
 
 
Навигация
Главная Истории групп Рок-библиотека Рок-календарь Рок-юмор mp3 Музыкальный софт Интересные ссылки Обратная связь Благодарности

Аккорды
А Б В Г Д Е
Ж З И К Л М
Н О П Р С Т
У Ф Х Ч Ш Ы
*
Э Ю Я 0-9
*

Таблица аккордов


GTP
А Б В Г Д Е
Ж З И К Л М
Н О П Р С Т
У Ф Х Ч Ш Ы
*
Э Ю Я 0-9
*

F.A.Q. по Guitar Pro 4


Опрос
Как давно вы слушаете русский рок?

 
Немного рекламы
 

 
Аккорды Танцы Минус - Город

Аккорды Танцы Минус - Город


Вступление:

e|---------------------------------------------------------------------|
H|----------------------10-8-10-8--------------------10-8-10-8-11-10---|
G|9-10-7----7--9-10-9-7----------9--9-10-7-9-10-9-7--------------------|
D|--------7--------------------------------7---------------------------|
A|---------------------------------------------------------------------|
E|---------------------------------------------------------------------|

e|12-10----12-10-12-10-----------------------------------------------|
H|-------11-------------10-8--10-8---------------------8-------8-----|
G|------------------------------------9-10-12-10---10------10------10|
D|---------------------------------10------------12------12------12--|
A|-------------------------------------------------------------------|
E|-------------------------------------------------------------------|

e|----------------------|
H|-----------------10---|
G|----------12-10-------|
D|------10--------------|
A|--12------------------|
E|----------------------|

Dm B Gm A
Я шагаю по проспекту, по ночному городу,
Dm B
Я иду, потому что у меня есть ноги,
Gm A
Я умею ходить, и поэтому иду,
Dm B
Иду навстречу цветным витринам,
Gm A
Мимо пролетают дорогие лимузины,
Dm B
В них женщины проносятся с горящими глазами,
Gm A
Холодными сердцами, золотыми волосами.

Припев:

Gm A
Город - сказка, город - мечта,
Dm B
Попадая в его сети - пропадаешь навсегда,
Глотая его вздох простуд и сквозняков,
С запахом бензина и дорогих духов.

Звезд на небе мало, но это не беда,
Здесь почти, что в каждом доме есть своя и не одна,
Электричество, газ, телефон, водопровод,
Коммунальный рай без хлопот и забот.

Припев.

Проигрыш.

Припев.

Дым высоких труб, бег седых облаков,
Нам укажет приближение холодных ветров,
Танец солнечных лучей в паутине проводов,
Над жестяными крышами обшарпанных домов.

Иду навстречу цветным витринам,
Мимо пролетают дорогие лимузины,
В них женщины проносятся,
С горящими глазами,
Холодными сердцами, золотыми волосами.

Припев.


Другие новости по теме:

  • Аккорды Танцы Минус - Дерево
  • Аккорды Танцы Минус - Яблoни
  • Аккорды Танцы Минус - Цветут цветы
  • Аккорды Танцы Минус - Твои глаза
  • Аккорды Танцы Минус - Из Ленинграда

  •  
     
     
    Популярные статьи
  • Танцы Минус - Три
  • Дельфин - 97 01
  • Территория Отчуждения - Брать живьём!
  • 5'nizza - КУ
  • Станционный Смотритель - СтереоС
  • Фаэтон - Знак проклятья

  •  
    Русский рок от "А" до "Я". 2010-2017