скачать рок Русский рок от А до Я скачать рок
   
 
 
Навигация
Главная Истории групп Рок-библиотека Рок-календарь Рок-юмор mp3 Музыкальный софт Интересные ссылки Обратная связь Благодарности

Аккорды
А Б В Г Д Е
Ж З И К Л М
Н О П Р С Т
У Ф Х Ч Ш Ы
*
Э Ю Я 0-9
*

Таблица аккордов


GTP
А Б В Г Д Е
Ж З И К Л М
Н О П Р С Т
У Ф Х Ч Ш Ы
*
Э Ю Я 0-9
*

F.A.Q. по Guitar Pro 4


Опрос
Как давно вы слушаете русский рок?

 
Немного рекламы
 

 
Аккорды Lumen - Сколько?

Аккорды Lumen - Сколько?


Вступление:

e|-------------------------|
H|----------0-----------0--|
G|-------0---------0-------|
D|-----5--5-------4--4-----|
A|----7---------5----------|
E|-------------------------|

e|-------------------------|
H|-----3---0---------------|
G|------0----0-----0--4–0--|
D|---2---2----2--4--4----4-|
A|--3-----------2----------|
E|-------------------------|

Куплет:

e|------------------------|
H|----------0-----------0-|
G|-------0---------0------|
D|-----5--5-------4--4----|
A|----7---------5---------|
E|------------------------|

e|--------------------------|
H|-----3---0----------------|
G|------0----0-----0--4–0---|
D|---2---2----2--4--4----4--|
A|3--------------2----------|
E|--------------------------|

Гитара:

1|---8---------8---------8------7------7-----7----|
2|-------5---------5--------5------5-----5------5-|
3|-----------5---------5--------------5-----5-----|

Em D
Меня уносят моря
C
Моих надежд, что стоят
Hm
И не дают отступить
И не хотят умирать…

Тошнотным глянцем страниц,
Бьёт по провалам глазниц,
Я в сотый раз промолчу,
Что мне наплевать.

С Hm
На вечность холодов,
Em
И бесполезность снов,
D
В которых я летал…
Крик перелётных птиц,
По нервам сотней спиц,
Напомнит что я знал...

Припев:

C Hm
Сколько было уже боли. Сколько…
Em D
Горько. Каждый день так странно горько,
Но только роли не изменишь, и только…
Сколько будет ещё боли? Сколько?

Песчаный берег души
В которой спрятал ножи.
Луна зовёт меня выть
И не даёт тихо жить…

Табачным дымом под дых,
Я застонал и притих,
Сырой бетон под щекой,
Не даст мне забыть.

Про вечность холодов,
И бесполезность снов,
В которых я летал…
Крик перелётных птиц,
По нервам сотней спиц,
Напомнит что я знал.

Припев.


Другие новости по теме:

  • Аккорды Рада & Терновник - Расскажи о том, где ты не был
  • Аккорды Дельфин - Тишина
  • Аккорды Сплин - Сломано всё
  • Аккорды Чайф - Давай вернемся
  • Аккорды Наутилус Помпилиус - Крылья

  •  
     
     
    Популярные статьи
  • Пилот - Двадцатничек!
  • Brutto - Рокі
  • 7000$ - Путь слабака или книга лишнего человека
  • Вадим Самойлов - На Берлин (Single)
  • КняZz - Узники долины снов
  • Зоя Ященко и группа Белая Гвардия - Венеция
  • Lumen - Хроника бешеных дней
  • Легион - Двойная звезда

  •  
    Русский рок от "А" до "Я". 2010-2017