скачать рок Русский рок от А до Я скачать рок
   
 
 
Навигация
Главная Истории групп Рок-библиотека Рок-календарь Рок-юмор mp3 Музыкальный софт Интересные ссылки Обратная связь Благодарности

Аккорды
А Б В Г Д Е
Ж З И К Л М
Н О П Р С Т
У Ф Х Ч Ш Ы
*
Э Ю Я 0-9
*

Таблица аккордов


GTP
А Б В Г Д Е
Ж З И К Л М
Н О П Р С Т
У Ф Х Ч Ш Ы
*
Э Ю Я 0-9
*

F.A.Q. по Guitar Pro 4


Опрос
Как давно вы слушаете русский рок?

 
Немного рекламы
 

 
Аккорды Белая Гвардия - Белая Гвардия

Аккорды Белая Гвардия - Белая Гвардия


Вступление:

Am D7 G C
Am H7 Em (E7)


e|---10-----8--0--------------|--(0)--------0--2--3--5-----|
H|-4:-------------------------|----------3-----------------|
G|-4:-------------------------|----------------------------|

e|---8-----7------------------|-------------------2--3-----|
H|------------3---------------|--(3)-----1--3--5-----------|
G|----------------------------|----------------------------|

e|---7-----5------------------|-------------------0--2--3--|
H|------------1---------------|--(1)-----0--2--4-----------|
G|----------------------------|----------------------------|

e|---(3)-----0--2--3--5--7----|--10-----8--12--------------|
H|----------------------------|----------------------------|
G|----------------------------|----------------------------|

e|---(12)--------0--2--3--5-----|--8-----7--10-------------|
H|------------3-----------------|--------------------------|
G|------------------------------|--------------------------|

e|---(10)--------------2--3-----|--7-----5--8--------------|
H|------------1--3--5-----------|--------------------------|
G|------------------------------|--------------------------|

e|---(8)--------------0--2--0--|--(0)-----------------|
H|-----------0--2--4-----------|----------------------|
G|-----------------------------|----------------------|


Em Am
Белая гвардия, белый снег, белая музыка революций,
D7 G
Белая женщина, нервный смех, белого платья слегка коснуться.
Em Am
Белой рукой распахнуть окно, белого света в нем не видя,
D7 G
Белое выпить до дна вино, в красную улицу в белом выйти...

Припев:

Em Am
Когда ты вернешься, все будет иначе, и нам бы узнать друг друга,
D7 G
Когда ты вернешься, а я не жена, и даже не подруга,
C Am
Когда ты вернешься, ко мне так безумно тебя любившей в прошлом,
H7 Em E7
Когда ты вернешься, увидишь, что жребий давно и не нами брошен...
Am D7 G C Am H7 Em (E7)
Ла-ла-ла...

Сизые сумерки прошлых лет робко крадутся по переулкам,
В этом окне еле брезжит свет. Ноты истрепаны, звуки гулки,
Тонкие пальцы срывают аккорд. Нам не простят безрассудного дара,
Бьются в решетку стальных ворот пять океанов земного шара.

Припев.

Красный трамвай простучал в ночи, красный закат догорел в бокале,
Красные, красные кумачи с красных деревьев на землю упали,
Я не ждала тебя в октябре. Виделись сны, я листала сонник,
Красные лошади на заре бились копытами о подоконник...

Припев.


Другие новости по теме:

  • Зоя Ященко и группа Белая Гвардия - Когда ты вернешься... скачать mp3
  • Белая Гвардия - Белая Гвардия скачать mp3
  • Аккорды Пилот - Когда ты вернешься
  • Лебедушка
  • Аккорды Ночные снайперы - Звучи!

  •  
     
     
    Популярные статьи
  • ДДТ - История звука
  • Lumen - Хроника бешеных дней
  • Мы вышли из кино. Трибьют Кино
  • Легион - Двойная звезда
  • Браво - Бравоспектива
  • Тараканы! - Larger Than… LIVE 25th Anniversary Show (2CD)
  • Слот - 15 (The Best Of)
  • Маша и Медведи - Мира война (Single)

  •  
    Русский рок от "А" до "Я". 2010-2017