скачать рок Русский рок от А до Я скачать рок
   
 
 
Навигация
Главная Истории групп Рок-библиотека Рок-календарь Рок-юмор mp3 Музыкальный софт Интересные ссылки Обратная связь Благодарности

Аккорды
А Б В Г Д Е
Ж З И К Л М
Н О П Р С Т
У Ф Х Ч Ш Ы
*
Э Ю Я 0-9
*

Таблица аккордов


GTP
А Б В Г Д Е
Ж З И К Л М
Н О П Р С Т
У Ф Х Ч Ш Ы
*
Э Ю Я 0-9
*

F.A.Q. по Guitar Pro 4


Опрос
Как давно вы слушаете русский рок?

 
Немного рекламы
 

 
Аккорды БИ-2 - Полковнику никто не пишет

Аккорды БИ-2 - Полковнику никто не пишет


e|-6------5------------------6------5-----------|
H|------------------6-4--4-6--------------------|
G|---7-7----7-7--7--------------8-8---8-8--8-7--|

Gm
Большие города,
D#
Пустые поезда,
Cm
Ни берега, ни дна,
D
Все начинать сначала.

Холодная война,
И время, как вода,
Он не сошел с ума,
Ты ничего не знала...

Припев:

Gm D#
Полковнику никто не пишет,
G|-----5-3----------------------------------|
D|---5-----5------------------8-8--8-8------|
A|-5---------5--5-6-5--8-6--6-6--6-6--------|

Gm F
Полковника никто не ждет...
e|-----------------------------6-6-5--6-6-5-|
H|------------------------------------------|
G|-----5-3----------------------------------|
D| ---5-----5-------------------------------|
A|-5---------5--5-6-5--8-6------------------|

Полковнику никто не пишет
Полковника никто не ждет...

На линии огня
Пустые города,
В которых никогда
Ты раньше не бывала,
И рвутся поезда
На тонкие слова,
Он не сошел с ума
Ты ничего не знала...

Припев.


Другие новости по теме:

  • Аккорды Виктор - Бездельник
  • Аккорды Гражданская оборона - Никто не хотел умирать
  • БИ-2 - БИ-2 скачать mp3
  • Аккорды Разные люди - Пусть сегодня никто не умрёт
  • Аккорды Сплин - Лепесток

  •  
     
     
    Популярные статьи
  • ДДТ - История звука
  • Мы вышли из кино. Трибьют Кино
  • Браво - Бравоспектива
  • Тараканы! - Larger Than… LIVE 25th Anniversary Show (2CD)
  • Маша и Медведи - Мира война (Single)
  • Слот - 15 (The Best Of)
  • СерьГа - Приметы
  • 7Б - Солнцу решать

  •  
    Русский рок от "А" до "Я". 2010-2017