скачать рок Русский рок от А до Я скачать рок
   
 
 
Навигация
Главная Истории групп Рок-библиотека Рок-календарь Рок-юмор mp3 Музыкальный софт Интересные ссылки Обратная связь

Аккорды
А Б В Г Д Е
Ж З И К Л М
Н О П Р С Т
У Ф Х Ч Ш Ы
*
Э Ю Я 0-9
*

Таблица аккордов


GTP
А Б В Г Д Е
Ж З И К Л М
Н О П Р С Т
У Ф Х Ч Ш Ы
*
Э Ю Я 0-9
*

F.A.Q. по Guitar Pro 4


Опрос
Как давно вы слушаете русский рок?

 
Немного рекламы
 

 
Аккорды Серьга - Дорога в ночь (Памяти друга)

Аккорды Серьга - Дорога в ночь (Памяти друга)


e|-3---------------------3---------------------|
H|----3-------3-------------3------3-----------|
G|--------0-3---5-3-2-0--------0-3---4s5-3-2-0-|
D|---------------------------------------------|
A|---------------------------------------------|
E|---------------------------------------------|

e|-1-------------------------------------------|
H|----3--0-0---3-2-0----3--0-------------------|
G|-----------2-------2---------2---------------|
D|-------------------------------2b3-0-2s3s2-0-|
A|---------------------------------------------|
E|---------------------------------------------|

Em9+ Am7
Здравствуй, ночь.
Em9+ Am7
Я так хотел с тобою встретиться, ночь,
D G
На небе звезды и немного луны,
D H7
Я ждал, я не ложился спать, я увидел тебя.
Слышишь, ночь,
Ты почему такая грустная, ночь?
Я вышел из дому, и нет никого,
А я хотел поговорить с кем-нибудь в темноте.

Знаешь, ночь,
Я много думал о твоей судьбе,
Я ничего не знаю о тебе,
Свою постель не променяю, дурак, ни на что
А может, ночь,
Не так уж плохо все, скажи мне, ночь,
И есть у каждого дорога в ночь,
На небе ровно столько звезд, сколько наших глаз,
На небе ровно столько звезд, сколько наших глаз.



Другие новости по теме:

  • Аккорды Земфира - Каждую ночь
  • Аккорды Гарик Сукачев - Ночной полет
  • Серьга - Дорога в ночь скачать mp3
  • Аккорды Кино - Каждую ночь
  • Аккорды Кино - Спокойная ночь

  •  
     
     

    Популярные статьи

     
    Русский рок от "А" до "Я". 2010