скачать рок Русский рок от А до Я скачать рок
   
 
 
Навигация
Главная Истории групп Рок-библиотека Рок-календарь Рок-юмор mp3 Музыкальный софт Интересные ссылки Обратная связь Благодарности

Аккорды
А Б В Г Д Е
Ж З И К Л М
Н О П Р С Т
У Ф Х Ч Ш Ы
*
Э Ю Я 0-9
*

Таблица аккордов


GTP
А Б В Г Д Е
Ж З И К Л М
Н О П Р С Т
У Ф Х Ч Ш Ы
*
Э Ю Я 0-9
*

F.A.Q. по Guitar Pro 4


Опрос
Как давно вы слушаете русский рок?

 
Немного рекламы
 

 
Аккорды Серьга - Чужой

Аккорды Серьга - Чужой


Вступление:

C(III) H
e|---------------3---------2----|---------------3---------2----|
H|-----1-0-------5---1-----4----|-----1-0-------5---1-----4----|
G|---------------5-----0---4----|---------------5-----0---4----|
D|---------4-7---5---------4----|---------4-7---5---------4----|
A|-2-3-----------3---------2----|-2-3-----------3---------2----|
E|---------------3---------2----|---------------3---------2----|

C H7 Em C
Он долго бродил по голой земле,
Am H7 Em
Искал любовь в холодной земле,
C H7 Em C
Искал наугад в полной темноте,
Am H7
А мы смеялись над ним, мы кричали "чужой".

Он каждое утро солнце встречал,
Поливая цветы, те, что в поле растут,
А ночью по звездам небо читал,
Шептался с луной, ждал, когда позовут.

G H Em
Ему средь нас не место,
G H Em
Ему меж нами тесно,
C D G (Em)
Он смотрит в небо, он верит ему,
C H
Кому это интересно...

Припев:

C D G Em
Капли дождя, слезы дождя,
C H7 Em
Падают точно та тело,
C D G Em
Капли любви, слезы добра,
C H7 Em
Кому есть до этого дело?

Проигрыш:

C(III) H
e|---------------3---------2----|---------------3---------2----|
H|-----1-0-------5---1-----4----|-----1-0-------5---1-----4----|
G|---------------5-----0---4----|---------------5-----0---4----|
D|---------4-7---5---------4----|---------4-7---5---------4----|
A|-2-3-----------3---------2----|-2-3-----------3---------2----|
E|---------------3---------2----|---------------3---------2----|

Он крылья купил, он решил улететь,
Он взял гитару и книгу про все…
В ней несколько слов за жизнь и за смерть,
А крылья дурак делал с умным лицом.

G H Em
Дурак знал про то, что тесно,
G H Em
Дурак нашел ему место,
C D G Em
Он крылья надел, он прыгнул с горы,
C H
Кому это интересно?

Припев.

Проигрыш.

Припев.

C H Em C Am H7 Em
Эй, ты парил на дно долины и гласс...


Другие новости по теме:

  • Аккорды Смысловые Галлюцинации - Чужое небо
  • Аккорды Ышо-Ышо - Не плачь, подруга
  • Аккорды Разные люди - Зачем?
  • Аккорды Элизиум - Слезы-зеркала
  • Аккорды Ария - Потерянный рай

  •  
     
     
    Популярные статьи

     
    Русский рок от "А" до "Я". 2010-2017