скачать рок Русский рок от А до Я скачать рок
   
 
 
Навигация
Главная Истории групп Рок-библиотека Рок-календарь Рок-юмор mp3 Музыкальный софт Интересные ссылки Обратная связь Благодарности

Аккорды
А Б В Г Д Е
Ж З И К Л М
Н О П Р С Т
У Ф Х Ч Ш Ы
*
Э Ю Я 0-9
*

Таблица аккордов


GTP
А Б В Г Д Е
Ж З И К Л М
Н О П Р С Т
У Ф Х Ч Ш Ы
*
Э Ю Я 0-9
*

F.A.Q. по Guitar Pro 4


Опрос
Как давно вы слушаете русский рок?

 
Немного рекламы
 

 
Аккорды Ария - Осколок льда

Аккорды Ария - Осколок льда


Вступление:

e|---------0---------------------------0---------------|
H|---0-1-3-----3---1---1-0-------0-1-3-----3---1---0---|
G|-2---------2---2---2-----2---2---------2---2---2---2-| x2
D|-----------------------------------------------------|
A|-0---------------------2-0---0---------------------0-|

Бас:

D|-------0-2----0----------------|-------0-2----0-----------|
A|-0-2-3------0---0-3-0-3-2-0----|-0-2-3------0---0-3-0-2-0-|

Перебор играется в такой последовательности:

Am C F G
H|------O-----| H|------O-----|
G|---------O--| G|---------O--|
D|----O---O---| D|----O---O---|
A|-O----------| A|------------|
E|------------| E|-O----------|

Am C
Ночь унесла тяжелые тучи,
F G Am
Но дни горьким сумраком полны.
Am C
Мы расстаемся - так будет лучше,
F G Am
Вдвоем нам не выбраться из тьмы...

Припев:

F G Am
Я любил и ненавидел
F G Am
Но теперь душа пуста
F G C G Am
Все исчезло, не оставив и следа
F G D Dm Am
И не знает боли в груди осколок льда...

Я помню все, о чем мы мечтали,
Но жизнь не для тех, кто любит сны.
Мы слишком долго выход искали,
Но шли бесконечно вдоль стены...

Припев.

Пусть каждый сам находит дорогу,
Мой путь будет в сотню раз длинней.
Но не виню ни черта, ни Бога,
За все заплатить придется мне!

Припев.


Другие новости по теме:

  • Эпидемия - Всадник из льда скачать mp3
  • Аккорды Уматурман - Ты ушла
  • Аккорды Эпидемия - Всадник из льда
  • Аккорды Мумий Тролль - Карнавала.нет
  • Аккорды Ария - Ночь в июле

  •  
     
     
    Популярные статьи
  • Дельфин - 97 01
  • Фаэтон - Знак проклятья

  •  
    Русский рок от "А" до "Я". 2010-2017