скачать рок Русский рок от А до Я скачать рок
   
 
 
Навигация
Главная Истории групп Рок-библиотека Рок-календарь Рок-юмор mp3 Музыкальный софт Интересные ссылки Обратная связь

Аккорды
А Б В Г Д Е
Ж З И К Л М
Н О П Р С Т
У Ф Х Ч Ш Ы
*
Э Ю Я 0-9
*

Таблица аккордов


GTP
А Б В Г Д Е
Ж З И К Л М
Н О П Р С Т
У Ф Х Ч Ш Ы
*
Э Ю Я 0-9
*

F.A.Q. по Guitar Pro 4


Опрос
Как давно вы слушаете русский рок?

 
Немного рекламы
 

 
Аккорды Выход - Червяки

Аккорды Выход - Червяки


Вступление:

Dm A7 Dm C B Am A7


e|----5-------4---|-3--1--0/1----1---|
H|---6--6----6--6-|--2--2-------3-3--|
G|--7--7-7--7--7-7|---0--0-----2---2-|
D|-0-------0------|-----------0------|
A|----------------|-0----------------|
E|----------------|------------------|

e|------1---------0--------0-----3--0--3--|
H|-----3-3-------1-1-1----2-2-2---2--2--2-|
G|----3---3--3--2---2-2--0---0-0---0--0---|
D|----------------------------------------|
A|-3-1------1--0--------0--------0--------|
E|----------------------------------------|

Dm A7 Dm C B
Все мы как червяки на крючке рыбака,
Am A7
Извиваемся, крутимся, рвемся,
Только лишь иногда у пивного ларька,
Мы как будто случайно сберемся.

Постоим, поплюем, подойдет наш черед,
Выпьем пива холодного кружку,
И вот так наша жизнь не спеша и пройдет,
Затерявшись у грязной пивнушки.



Другие новости по теме:

  • Выход - Брат Исайя скачать mp3
  • Аквариум - Песни рыбака скачать mp3
  • Аккорды Бригадный подряд - Амундсен
  • Аккорды Лаэртский Александр - Детства чистые глазёнки
  • Аккорды ДДТ - Ларек (Бородино)

  •  
     
     

    Популярные статьи

     
    Русский рок от "А" до "Я". 2010