скачать рок Русский рок от А до Я скачать рок
   
 
 
Навигация
Главная Истории групп Рок-библиотека Рок-календарь Рок-юмор mp3 Музыкальный софт Интересные ссылки Обратная связь Благодарности

Аккорды
А Б В Г Д Е
Ж З И К Л М
Н О П Р С Т
У Ф Х Ч Ш Ы
*
Э Ю Я 0-9
*

Таблица аккордов


GTP
А Б В Г Д Е
Ж З И К Л М
Н О П Р С Т
У Ф Х Ч Ш Ы
*
Э Ю Я 0-9
*

F.A.Q. по Guitar Pro 4


Опрос
Как давно вы слушаете русский рок?

 
Немного рекламы
 

 
Аккорды Ария - Закат

Аккорды Ария - Закат


Проигрыш:

G|---0----0----0----0--|---0----0----0----0--|---0----0----0----0--|---0----0----0----0--|
D|----2----2--2-2--4-4-|----2----2--2-2--4-4-|----2----2--2-2--4-4-|----2----2--2-2--4-4-|
A|--2----2---3---5-----|--2----2---3---5-----|--2----2---3---5-----|--2----2---3---5-----|
E|-0----0--------------|-0----0--------------|-0----0--------------|-0----0--------------|

Em Am D Em
Я вижу, как закат стёкла оконные плавит,

e|-----0--------0-------2320------0----|
H|----0-0------1-1-----3----3----0-0---|
G|---0---0----2---2---2---------0---0--|
D|--2-----2--2-----2-0---------2-----2-|
A|----------0--------------------------|
E|-0--------------------------0--------|

Em A F# H7 (H)
День прожит, а ночь оставит тени снов в углах.

e|-----0--------0--------2--------2----|
H|----0-0------1-1------2-2------0-0---|
G|---0---0----2---2----3---3----2---2--|
D|--2-----2--2-----2--4-----4--1-----1-|
A|----------0-----------------2--------|
E|-0-----------------2-----------------|

Мне не вернуть назад серую птицу печали,
Всё в прошлом, так быстро тают замки в облаках.

Припев:

E7 Am
Там все живы, кто любил меня,
C H7 (H)
Где восход - как праздник бесконечной жизни,
E7 Am
Там нет счёта рекам и морям,
C H7 (H)
Но по ним нельзя доплыть домой.

Проигрыш.

Вновь примирит всё тьма, даже алмазы и пепел,
Друг равен врагу в итоге, а итог один...
Два солнца у меня на этом и прошлом свете,
Их вместе собой укроет горько-сладкий дым.

Припев:

G D
Возьми меня с собой, пурпурная река,
G D
Прочь унеси меня с собой, закат.
Am C
Тоска о том, что было, рвётся через край,
Hm C
Под крики серых птичьих стай.

Проигрыш.

Em Am D Em
Я вижу, как закат стёкла оконные плавит,
Em Am F# H7 Em
День прожит, а ночь оставит тени снов в углах...


Другие новости по теме:

  • Аккорды Смысловые Галлюцинации - Волшебный мир
  • Аккорды Lumen - Беги
  • Аккорды Дельфин - Радиоволна
  • Аккорды Эпидемия - Фея моих снов
  • Аккорды Кино - Место для шага вперёд

  •  
     
     
    Популярные статьи

     
    Русский рок от "А" до "Я". 2010-2017