скачать рок Русский рок от А до Я скачать рок
   
 
 
Навигация
Главная Истории групп Рок-библиотека Рок-календарь Рок-юмор mp3 Музыкальный софт Интересные ссылки Обратная связь Благодарности

Аккорды
А Б В Г Д Е
Ж З И К Л М
Н О П Р С Т
У Ф Х Ч Ш Ы
*
Э Ю Я 0-9
*

Таблица аккордов


GTP
А Б В Г Д Е
Ж З И К Л М
Н О П Р С Т
У Ф Х Ч Ш Ы
*
Э Ю Я 0-9
*

F.A.Q. по Guitar Pro 4


Опрос
Как давно вы слушаете русский рок?

 
Немного рекламы
 

 
Аккорды Ария - Возьми мое сердце

Аккорды Ария - Возьми мое сердце


Вступление:

e|---------10--------10--------5-------4-|---------10--------10--------5-------4-|
H|------10---------9---------6-------5---|------10---------9---------6-------5---|
G|---10----------9---------7-------7-----|---10----------9---------7-------7-----|
D|-0-----------0---------0-------0-------|-0-----------0---------0-------0-------|

Куплет:

e|-------1-------0-------5-------4-|-------1-------0-------5-------4-|
H|-----3-------3-------6-------5---|-----3-------3-------6-------5---|
G|---2-------1-------7-------7-----|---2-------1-------7-------7-----|
D|-0-------0-------0-------0-------|-0-------0-------0-------0-------|

e|-------3-3-3-----------1-------0-|
H|-----3---3---2-------3-------3---|
G|---3-----3-----1---2-------1-----|
D|---------2-------0-------0-------|
A|-5-------------------------------|

e|-------3-------3-1-1---2-|
H|-----3-------3---3---3-2-|
G|---3-------3-----3-----2-|
D|---------2---------------|
A|-5---------------1-----0-|

Слепая ночь легла у ног,
И не пускает за порог,
Брожу по дому как во сне,
Но мне покоя нет нигде.
Тупая боль пробьет висок,
И пальцы лягут на курок,
А в зеркалах качнется призрак,
Призрак любви...

Припев:

Dm
Возьми мое сердце,
F
Возьми мою душу,
Gm
Я так одинок в этот час,
C7
Что хочу умереть...
Dm
Мне некуда деться,
F
Свой мир я разрушил,
Gm
По мне плачет только свеча,
C7
На холодной заре...

Ты умерла в дождливый день,
И тени плыли по воде,
Я смерть увидел в первый раз,
Ее величие и грязь.
В твоих глазах застыла боль,
Я разделю ее с тобой,
А в зеркалах качнется призрак,
Призрак любви.

F B C7
Я слышу утренний колокол,
Он славит праздник,
И сыпет медью и золотом,
Dm C
Ты теперь в царстве вечного сна...

Я слышу утренний колокол,
Он бесов дразднит,
И звоном небо расколото,
На земле я любил лишь тебя...

Возьми мое сердце...

Проигрыш:

e|---------10-------10-------5-----5-|
H|------10--------9--------8---8---7-|
G|---10---------9--------7-------7-7-|
D|0-----------0--------0-----------0-|


Другие новости по теме:

  • Аккорды Смысловые Галлюцинации - Волшебный мир
  • Рок-Острова - Колокол в моём сердце скачать mp3
  • Аккорды Последние танки в Париже - Девственность
  • Черный Кофе - Приди и все возьми скачать mp3
  • Аккорды Кино - Разреши мне

  •  
     
     
    Популярные статьи
  • Виктор Цой и группа Кино - 55 (3CD)
  • Танцы Минус - Три
  • Дельфин - 97 01
  • Территория Отчуждения - Брать живьём!
  • 5'nizza - КУ
  • Velvet - Отчёт
  • Станционный Смотритель - СтереоС
  • Зимавсегда - Всеоружие
  • Фаэтон - Знак проклятья

  •  
    Русский рок от "А" до "Я". 2010-2017