скачать рок Русский рок от А до Я скачать рок
   
 
 
Навигация
Главная Истории групп Рок-библиотека Рок-календарь Рок-юмор mp3 Музыкальный софт Интересные ссылки Обратная связь Благодарности

Аккорды
А Б В Г Д Е
Ж З И К Л М
Н О П Р С Т
У Ф Х Ч Ш Ы
*
Э Ю Я 0-9
*

Таблица аккордов


GTP
А Б В Г Д Е
Ж З И К Л М
Н О П Р С Т
У Ф Х Ч Ш Ы
*
Э Ю Я 0-9
*

F.A.Q. по Guitar Pro 4


Опрос
Как давно вы слушаете русский рок?

 
Немного рекламы
 

 
Аккорды Ария - Беспечный ангел

Аккорды Ария - Беспечный ангел


Вступление:

e|----------------------------------------|
H|-----------0-------1-------3-------3----|
G|----------0-0-----0--0-0--0--0-0--0-----|
D|-----0---2---2---2--2-2--0--0-0--0------|
A|--0-2---2-----2-3-----------------------|
E|-3-----0----------------3-------3-------|

e|----------------------------3-----------|
H|-----------0-------1---------3----------|
G|----------0-0-----0--0-0---0--0---------|
D|-----0---2---2---2--2-2---0----0--------|
A|--0-2---2-----2-3--------2--------------|
E|-3-----0----------------3-------3-------|

Em
Этот парень был из тех,
C G
Кто просто любит жизнь.
Em
Любит праздники и громкий смех,
C D
Пыль дорог и ветра свист.
Am G
Он был везде и всегда своим,
D Am
Влюблял в себя целый свет,
D Em
И гнал всегда свой байк, а не лимузин -
C D
Таких друзей больше нет.

И в гостиной при свечах
Он танцевал, как бог.
Но зато менялся на глазах,
Только вспомнит шум дорог.
Все, что имел, тут же тратил
И, за порог сделав шаг,
Мой друг давал команду братьям,
Вверх поднимая кулак.

Припев:

Em C D
Ты - летящий вдаль, вдаль ангел,
C H7 Em
Ты - летящий вдаль, вдаль ангел,
C D
Ты один только друг, друг на все времена,
C D
Немного таких среди нас,
Am C G
Ты - летящий вдаль беспечный ангел.


Под гитарный жесткий рок,
Который так любил,
На Харлее он домчать нас мог
До небес и звезд любых.
Но он исчез, и никто не знал
Куда теперь мчит его байк.
Один бродяга нам сказал,
Что он отправился в рай.

Припев:

Ты - летящий вдаль, вдаль ангел,
Ты - летящий вдаль, вдаль ангел,
Но стал союзником рая в ту ночь
Против тебя одного.
Ты - летящий вдаль, вдаль ангел,
Ты - летящий вдаль беспечный ангел.


Другие новости по теме:

  • Аккорды Ноль - Цвет моей мечты
  • Аккорды Станционный смотритель - Ангел мой
  • Аккорды Секрет - Ветер новых дней
  • Аккорды Разные люди - Прости
  • Аккорды Lumen - Мечта

  •  
     
     
    Популярные статьи

     
    Русский рок от "А" до "Я". 2010-2017