скачать рок Русский рок от А до Я скачать рок
   
 
 
Навигация
Главная Истории групп Рок-библиотека Рок-календарь Рок-юмор mp3 Музыкальный софт Интересные ссылки Обратная связь Благодарности

Аккорды
А Б В Г Д Е
Ж З И К Л М
Н О П Р С Т
У Ф Х Ч Ш Ы
*
Э Ю Я 0-9
*

Таблица аккордов


GTP
А Б В Г Д Е
Ж З И К Л М
Н О П Р С Т
У Ф Х Ч Ш Ы
*
Э Ю Я 0-9
*

F.A.Q. по Guitar Pro 4


Опрос
Как давно вы слушаете русский рок?

 
Немного рекламы
 

 
Аккорды Пилот - Пешком по шпалам

Аккорды Пилот - Пешком по шпалам


Вступление:

e|-----------3--1--0-----------------0----------0--|
H|----0--1------------3-----0--1-------3--1--3-----|
G|--2-------2------------2--------2----------------|
D|-------------------------------------------------|
A|-------------------------------------------------|
E|-------------------------------------------------|

e|-----------3--1--0-----------------0------------|
H|----0--1------------3-----0--1-------3--1--0----|
G|--2-------2------------2--------2-------------2--|
D|-------------------------------------------------|
A|-------------------------------------------------|
E|-------------------------------------------------|

Am G
По дорогам жаждущим,
F E Am
По дорогам жаждущим тепла
G
Я шагаю налегке,
F E Dm
Посланный за смертью с рюкзаком.
F E Dm
И стук колес играет старый блюз
E Am
По шпалам мимо нот.

Am G
За вином и музыкой
F E Am
Проходит быстро жизнь моя,
G
И летают бабочки
F E Dm
Над стаканом водки светофор,
E
Мигает глазом своим обкуренным зрачком,

Меняя цвет
F Am
Пешком по шпалам на юга.
F Am
Пешком по шпалам на юга.
F Am
Пешком по шпалам на юга.

Dm
Где солнце, море, воздух,
Пиво, водка, бабы и луна.

По карману шарится
Заветный стольник и билет,
По земле катается
Пустая кружка и сухарь
И скрип нажатых тормозов
Стирает ржавые дома
Пешком по шпалам на юга.
Пешком по шпалам на юга.
Пешком по шпалам на юга.
Где солнце, море, воздух,
Пиво, водка, бабы и луна.


Другие новости по теме:

  • Пилот - Сансара нашего двора скачать mp3
  • Пилот - Концерт в Санкт-Петербурге ЗПТ скачать mp3
  • ДДТ - Гляди пешком скачать mp3
  • Пилот - Война (Акустика) скачать mp3
  • Аккорды Янка Дягилёва – По трамвайным рельсам

  •  
     
     
    Популярные статьи
  • Чайф - Теория струн
  • Александр Балунов - Песни о любви и дружбе
  • Александр Иванов - Этой весной...
  • Адаптация - Radio Resistance
  • Владимир Кузьмин - Рокер-3. Закрытие сезона
  • Шмели - Мизантропия
  • Noize MC - Царь горы

  •  
    Русский рок от "А" до "Я". 2010-2017