скачать рок Русский рок от А до Я скачать рок
   
 
 
Навигация
Главная Истории групп Рок-библиотека Рок-календарь Рок-юмор mp3 Музыкальный софт Интересные ссылки Обратная связь Благодарности

Аккорды
А Б В Г Д Е
Ж З И К Л М
Н О П Р С Т
У Ф Х Ч Ш Ы
*
Э Ю Я 0-9
*

Таблица аккордов


GTP
А Б В Г Д Е
Ж З И К Л М
Н О П Р С Т
У Ф Х Ч Ш Ы
*
Э Ю Я 0-9
*

F.A.Q. по Guitar Pro 4


Опрос
Как давно вы слушаете русский рок?

 
Немного рекламы
 

 
Аккорды Король и Шут - Ответ - лютая месть!

Аккорды Король и Шут - Ответ - лютая месть!


Вступление:

E5 G5 A5


Бас:

E|-0-0-0-0-0-0-0-0-3-3-3-5--5-5-5--0-0-0-0-0-0-0-0-3-3-3-5--5-5-5-|

Em G F#
e|-0-0---0------0-----3-3-2---------|
H|-0-0-0-0----0-0-----3-3-2---------|
G|-0-0-0-0----0-0-----4-4-3---------|
D|-2-2-0-2----0-2-----5-5-4---------|
A|-2-2-0-2----0-2-----5-5-4---------|
E|-0-0-0-0----0-0-----3-3-2---------|

Em G A
Опять ночь без сна,
Em G A
В окно смотрит луна,
Em G A
Наверное, знает она,
A Н D
Отчего так мучают кошмары!
Опять слышу я
Сухой треск огня,
И жена трещит моя,
Год назад сгоревшая в кровати!

Внизу мой сосед,
Его слышен бред,
В том подвале потухший свет
Стал причиной очень странной смерти!

Припев:

Н
Муж рассерженный отомстит
C
Они честные люди, их бог простит,
Em G A G C D
Ревность - это беда, а измена - ерунда!
Как устроен наш белый свет:
Там, где двое, для третьего места нет,
Только в стенах моих нету места для этих двоих!

Луна, ты не спишь,
За мной ты следишь,
То, что слышу я, ты услышь,
Уничтожь, прошу, все эти звуки!

E5 D5 E5 Em
G|-9-9-9-7-9-9-9-9-| G|-0-0-0-0-0-0-0-0---|
D|-9-9-9-7-9-9-9-9-| D|-2-2-2-0-2-2-2-2---|
A|-7-7-7-5-7-7-7-7-| A|-2-2-2-0-2-2-2-2---|
E|-----------------| E|-0-0-0-0-0-0-0-0---|

Вот мой ответ - лютая месть,
В доме их нет, но крики их есть!


Другие новости по теме:

  • Аккорды Король и Шут - Некромант
  • Король и Шут - Лучшие песни (Новая коллекция) скачать mp3
  • Король и Шут - Как в старой сказке скачать mp3
  • Аккорды Тараканы! - Весеннее обострение
  • Аккорды Наутилус Помпилиус - Маленький подвиг

  •  
     
     
    Популярные статьи

     
    Русский рок от "А" до "Я". 2010-2017