скачать рок Русский рок от А до Я скачать рок
   
 
 
Навигация
Главная Истории групп Рок-библиотека Рок-календарь Рок-юмор mp3 Музыкальный софт Интересные ссылки Обратная связь Благодарности

Аккорды
А Б В Г Д Е
Ж З И К Л М
Н О П Р С Т
У Ф Х Ч Ш Ы
*
Э Ю Я 0-9
*

Таблица аккордов


GTP
А Б В Г Д Е
Ж З И К Л М
Н О П Р С Т
У Ф Х Ч Ш Ы
*
Э Ю Я 0-9
*

F.A.Q. по Guitar Pro 4


Опрос
Как давно вы слушаете русский рок?

 
Немного рекламы
 

 
Аккорды Алиса - Паскуда

Аккорды Алиса - Паскуда


Вступление для двух гитар:

F5
e|---------------------------|-----------------------------------|
H|---------------------------|-----------------------------------|
G|---------------------------|-----------------0-----------------|
D|---------------------------|-3-2-2-2-4-2-2-2---2-2-2-3-2-------|
A|---------------------------|-----------------------------------|
E|-0-0-0-0-0-0-0-0-0-0-0-0-1-|-0-0-0-0-0-0-0-0-0-0-0-0-0-1-------|

Куплет:

За собой...
e|----------------------------|-----------------------------------|
H|----------------------------|-----------------------------------|
G|*-------------------------*-|-----------------------------------|
D|*-------------------------*-|------------------6-------6-5------|
A|----------7-----------8-8---|-----------------------------------|
E|--0-0-0-0-----0-0-0-0-------|-0-3-4-0-3-4--4-4-----4-4----------|

Е5
Время поездом в даль,
Время стрелами в лету.
По несжатым полям,
По отравленным рекам,
А5
По дорогам кривым,
Е5
По лесам, по болотам,
C5 A5 Bb H5 E5 G5
Оставляя кресты, как следы, за собой.

Время голубем в рай,
В ад стволом пистолета.
По слезам, по глазам,
По опущенным векам.
Да по иглам стальным,
По замкам, по решеткам,
Оставляя седые виски за собой.

Припев:

A5 C5
А мы гуляли, пели, шли своей тропой.
H5
Мы открывали двери.
C5 H5
Хоть вход был запрещен.
Е5
Мы шли в огонь!
Е5
Знай, паскуда, вольных!
Е5
Знай!

Время красным цветком
Млечным соком по лицам,
Полной страха луной
Да по впалым глазницам.
По стихам про любовь,
Да по койкам больничным,
Оставляя на сердце рубцы за собой.

Припев.


Другие новости по теме:

  • Аккорды Виктор - Прощай
  • Аккорды Кукрыниксы - Знай
  • Умка и Броневичок - Пир во время чумы
  • Аккорды Кино - Следи за собой
  • Аккорды Lumen - Тень

  •  
     
     
    Популярные статьи
  • Виктор Цой и группа Кино - 55 (3CD)
  • Танцы Минус - Три
  • Дельфин - 97 01
  • Территория Отчуждения - Брать живьём!
  • 5'nizza - КУ
  • Velvet - Отчёт
  • Станционный Смотритель - СтереоС
  • Зимавсегда - Всеоружие
  • Фаэтон - Знак проклятья

  •  
    Русский рок от "А" до "Я". 2010-2017