скачать рок Русский рок от А до Я скачать рок
   
 
 
Навигация
Главная Истории групп Рок-библиотека Рок-календарь Рок-юмор mp3 Музыкальный софт Интересные ссылки Обратная связь Благодарности

Аккорды
А Б В Г Д Е
Ж З И К Л М
Н О П Р С Т
У Ф Х Ч Ш Ы
*
Э Ю Я 0-9
*

Таблица аккордов


GTP
А Б В Г Д Е
Ж З И К Л М
Н О П Р С Т
У Ф Х Ч Ш Ы
*
Э Ю Я 0-9
*

F.A.Q. по Guitar Pro 4


Опрос
Как давно вы слушаете русский рок?

 
Немного рекламы
 

 
Аккорды 7 раса - Топливо (2 версия)

Аккорды 7 раса - Топливо (2 версия)


Вступление:

1 тема:

|--------------------
|--------------------
|--------------------
|---2\3-2\3-2\3-2\3--
|--0---0---0---0-----
|--------------------

2 тема:

|----7~-------
|---0---0-----
|--5---5--5\8-
|-------------
|-------------
|-------------

Далее:

|--------------------------------------------
|--------------------------------------------
|-----------4^5--5^4--------------7--77x7-7--
|--7-7--7/0/3----3-3--0-0--0-0/6--66x6/5-----
|--7-7--7/0/3----3-3--0-0--0-0/6--66x6/5-----
|--7-7--7/0/3----3-3--0-0--0-0/6--66x6/5-----

Куплетный перебор:

|-----7--5-------0--
|--5------0-----0---
|---5------5---2----
|----7------4-3-----
|-------------------
|-------------------

Я не хочу об этом думать,
Не хочу вспоминать.
Кому-то всё это поведать,
И заново переживать.
Не осталось никого,
Кого б я мог любить,
И я не вижу ничего,
Что заставляло бы жить.

Припев:

|------------------------------------
|------------------------------------
|------8^9-----4^5-------------------
|--7777----3333----66666666/99999/8--
|--7777----3333----66666666/99999/8--
|--7777----3333----66666666/99999/8--

А время тащится по кругу, что сегодня что вчера,
И я стал узником я проклят в каком-то дне сентября,
Меня размоет дождь или раздавят облака,
Я должен уехать цена билета одна – жизнь.

Я придумал эти песни,
Так как я хотел,
Но всё это пустое,
Даже то, что не успел.
И серый день мой,
Не согреть ни пойлом, ни травой,
Ни психотропными полётами,
Ни ядерной зимой.

Припев:

Я смотрю на своё тело, наверно, это просто сеть,
Я ненавижу его – оно должно умереть.
И я с тоской смотрю на птиц,
Покидающих нас стай,
А мы здесь только для того, чтобы качать кайф?

Моя последняя обитель – осень,
Мой вечный зов,
Мои глаза наполняет
Красно-жёлтая кровь.
Уже не чувствую боли
Лишь усталость и грусть
И уверенность в том,
Что сюда я не вернусь.

Припев:

Мои руки опустились, как плети до колен,
Я помню лишь униженье и череду ваших измен,
Я заебался искать в чужих ученьях свет,
Иллюзии надежды в прошлом – будущего нет.

outro:

|------------------
|------------------
|-------0/2--4^5^4-
|---2/3-----3------
|--0---0---0-------
|------------------


Другие новости по теме:

  • Аккорды Ноль - Инвалид нулевой группы
  • Аккорды Табула Раса - Никого не слушай
  • Аккорды 7 раса - Вечное лето
  • Аккорды 7 раса - Топливо
  • Аккорды 7 раса - Черная весна

  •  
     
     
    Популярные статьи
  • ДДТ - История звука
  • Lumen - Хроника бешеных дней
  • Легион - Двойная звезда
  • Мы вышли из кино. Трибьют Кино
  • Браво - Бравоспектива
  • Тараканы! - Larger Than… LIVE 25th Anniversary Show (2CD)
  • Слот - 15 (The Best Of)
  • Маша и Медведи - Мира война (Single)

  •  
    Русский рок от "А" до "Я". 2010-2017