скачать рок Русский рок от А до Я скачать рок
   
 
 
Навигация
Главная Истории групп Рок-библиотека Рок-календарь Рок-юмор mp3 Музыкальный софт Интересные ссылки Обратная связь

Аккорды
А Б В Г Д Е
Ж З И К Л М
Н О П Р С Т
У Ф Х Ч Ш Ы
*
Э Ю Я 0-9
*

Таблица аккордов


GTP
А Б В Г Д Е
Ж З И К Л М
Н О П Р С Т
У Ф Х Ч Ш Ы
*
Э Ю Я 0-9
*

F.A.Q. по Guitar Pro 4


Опрос
Как давно вы слушаете русский рок?

 
Немного рекламы
 

 
Аккорды Тараканы! - Дурная башка

Аккорды Тараканы! - Дурная башка


Вступление:

e|-----------------------------------------------|
H|-----------------------------------------------|
G|-5----------------9-------------------------10-|
D|-5----------------9-------------------------10-|
A|-3----------------7--------------------------8-|
E|-----------------------------------------------|

Солнцезащитные очки, а вместо глаз одни зрачки,

e|---------------------------------------|
H|---------------------------------------|
G|---------------------12------10-9----5-|
D|---------------------12------10-9----5-|
A|---------------------10-------8-7----3-|
E|---------------------------------------|

За нахождение в крови от ноля до пяти.

Основная тема:

e|-------------------------|
H|-------------------------|
G|-----------14--10--12--9-|
D|-----------14--10--12--9-|
A|-----------12---8--10--7-|
E|-------------------------|

Дурная башка ногам покоя не дает.

Проигрыш:

A|-----------------------8--7-5------------------------8--7-5-|
E|-5--7-8--5--7-8--5--7-8--------5--7-8--5--7-8--5--7-8-------|

Солнцезащитные очки,
А вместо глаз - одни зрачки,
За нахождение в крови,
От "ноля до пяти".

Рубашка с длинным рукавом,
Один прозвон - опять облом,
Осколки сбывшейся мечты,
Вместо "грамма" - ноль-три.

Припев:

Дурная башка
Ногам покоя не дает,
Сегодня, вчера
И завтра - целый скучный год.

Больная среда,
До добра не доведет,
Случиться беда,
И врядли кто-нибудь поймет.

Припев.



Другие новости по теме:

  • Сектор Газовой Атаки - До первой крови скачать mp3
  • Аккорды Сергей Шнуров - Башка
  • Аккорды Гражданская оборона - Продолжая продолжать
  • Аккорды Торба-на-Круче - Псих
  • Аккорды Чайф - Мама, она больше не может

  •  
     
     

    Популярные статьи

     
    Русский рок от "А" до "Я". 2010