скачать рок Русский рок от А до Я скачать рок
   
 
 
Навигация
Главная Истории групп Рок-библиотека Рок-календарь Рок-юмор mp3 Музыкальный софт Интересные ссылки Обратная связь

Аккорды
А Б В Г Д Е
Ж З И К Л М
Н О П Р С Т
У Ф Х Ч Ш Ы
*
Э Ю Я 0-9
*

Таблица аккордов


GTP
А Б В Г Д Е
Ж З И К Л М
Н О П Р С Т
У Ф Х Ч Ш Ы
*
Э Ю Я 0-9
*

F.A.Q. по Guitar Pro 4


Опрос
Как давно вы слушаете русский рок?

 
Немного рекламы
 

 
Аккорды Сплин - Бонни и Клайд

Аккорды Сплин - Бонни и Клайд


Am G E Am
e|-----|---------------|-------|-------|-----------------|
H|-----|-0--0----0--0--|--0----|---0---|--31-0-13-1-0-1--|
G|-----|--2--2----2--2-|----0--|----1--|-----------------|
D|-----|2--2--2-2--2--2|-----0-|------2|----------------2|
A|---30|-------0-------|------0|--2----|-0---------------|
E|-03--|---------------|-3-----|-0-----|-----------------|

G E Am
e|-------|-------|-----------------|
H|--0----|---0---|--31-0-13-1-0-1--|
G|----0--|----1--|-----------------|
D|-----0-|------2|----------------2|
A|------0|--2----|-0---------------|
E|-3-----|-0-----|-----------------|

Проигрыш:

A|----30------|
E|-003--------|

Партия вокала:

e|000--------------0--000------------|
H|----33-10--01-12--1-----33-1010--1-|
G|----------2---------------------2--|

Куплет:

Am G C Am
e|---5---|---3---|---0---|----|
H|---5---|---3---|---1---|----|
G|---5---|---4---|---0---|-5--|
D|----7--|-------|--2-2--|-7--|
A|--7--7-|--5----|-3-----|-7--|
E|-5-----|-3-----|-------|-5--|

Am G E Am
e|---5---|----|---|----|
H|---5---|----|---|----|
G|---5---|----|-1-|-5--|
D|----7--|----|-2-|-7--|
A|--7--7-|--5-|-2-|-7--|
E|-5-----|-3--|-0-|-5--|

Am G C C Am
Никому не доверяй наших самых страшных тайн,
Am G E Am
Никому не говори как мы умрем.
Am G
В этой книге, между строк,
C C Am
Спрятан настоящий Бог.
Am G Am
Он смеется, он любуется тобой.

Ты красива, словно взмах волшебной палочки в руках,
Незнакомки из забытого мной сна.
Мы лежим на облаках,
А внизу бежит река
Нам вернули наши пули все сполна.



Другие новости по теме:

  • Сплин - Акустика скачать mp3
  • Сплин - 13 лет в рок-н-ролле скачать mp3
  • Ночные Снайперы - Бонни и Клайд скачать mp3
  • Сплин - Зн@менатель скачать mp3
  • Аккорды Ночные снайперы - Бонни и Клайд

  •  
     
     

    Популярные статьи

     
    Русский рок от "А" до "Я". 2010