скачать рок Русский рок от А до Я скачать рок
   
 
 
Навигация
Главная Истории групп Рок-библиотека Рок-календарь Рок-юмор mp3 Музыкальный софт Интересные ссылки Обратная связь Благодарности

Аккорды
А Б В Г Д Е
Ж З И К Л М
Н О П Р С Т
У Ф Х Ч Ш Ы
*
Э Ю Я 0-9
*

Таблица аккордов


GTP
А Б В Г Д Е
Ж З И К Л М
Н О П Р С Т
У Ф Х Ч Ш Ы
*
Э Ю Я 0-9
*

F.A.Q. по Guitar Pro 4


Опрос
Как давно вы слушаете русский рок?

 
Немного рекламы
 

 
Аккорды ДДТ - 180 сантиметров

Аккорды ДДТ - 180 сантиметров


e|-3---3--2--3---2---3----3---0------3----2---3---2---3---3----0--|
H|-0---0--0--0---0---0----3---3------0----0---0---0---0---3----2--|
G|-0-----------------------------------------------------------0--|
D|---------------------------------0---------------------------0--|
A|---------------------------------2---------------------------2--|
E|-------------------------------------------------------------3--|

G
e|---------------------1------------------------|
H|------------------------0---------------------|
G|---------------0----------0-------------------|
D|----------------------------------------------|
A|----------------------------------------------|
E|---------3------------------------------------|

С
e|---------------------0------------------------|
H|------------------------1---------------------|
G|---------------0----------0-------------------|
D|----------------------------------------------|
A|---------3------------------------------------|
E|----------------------------------------------|

D
e|---------------------2------------------------|
H|------------------------3---------------------|
G|---------------2----------2-------------------|
D|----------------------------------------------|
A|----------0-----------------------------------|
E|----------------------------------------------|

G
Сто восемьдесят сантиметров назад
C D
Мы были одни.
G
Мама, я тебе был так рад,
C D
И девять месяцев лили дожди.
И девять месяцев пела вода,
А потом обратилась в лед,
И тот, кто съел пуповину и порвал провода,
Благословил наш первый полет.
Сто восемьдесят сантиметров назад
Над нашей бренной землей
Гнал лошадей непокорный отряд,
Закован медной броней.
Империя рушилась, резали власть
Тайны дворцовых теней,
Но земля победила, не позволив пропасть,
Превратила нас в стаю камней.
Сто восемьдесят сантиметров назад
Ты вышивала следы,
По которым пройду я и стану у врат
Града небесной руды,
Золотые дороги в холодном снегу,
Я хочу и могу быть живым,
И один сантиметр для нас сберегу,
Мы вырастем следом за ним.


Другие новости по теме:

  • Аккорды Рада & Терновник - Мои девять жизней
  • Аккорды Без Билета - Никогда не умирай
  • Аккорды Разные люди - 911
  • Аккорды Наутилус Помпилиус - Всего лишь быть
  • Аккорды Наутилус Помпилиус - Бриллиантовые дороги

  •  
     
     
    Популярные статьи

     
    Русский рок от "А" до "Я". 2010-2017