скачать рок Русский рок от А до Я скачать рок
   
 
 
Навигация
Главная Истории групп Рок-библиотека Рок-календарь Рок-юмор mp3 Музыкальный софт Интересные ссылки Обратная связь Благодарности

Аккорды
А Б В Г Д Е
Ж З И К Л М
Н О П Р С Т
У Ф Х Ч Ш Ы
*
Э Ю Я 0-9
*

Таблица аккордов


GTP
А Б В Г Д Е
Ж З И К Л М
Н О П Р С Т
У Ф Х Ч Ш Ы
*
Э Ю Я 0-9
*

F.A.Q. по Guitar Pro 4


Опрос
Как давно вы слушаете русский рок?

 
Немного рекламы
 

 
Аккорды Дельфин - Звезда

Аккорды Дельфин - Звезда


G|--3-|--3--|----|-----|
D|-1--|-1-1-|-2--|-2-2-|
A|----|-----|--4-|--4--|

У края дня
Ночь упивалась тишиной,
Птиц хороня
За серебристою листвой.
Немая топь
Бессмертья солнечных ветров,
Спускалась вновь
Росой на лепестки цветов.

Припев:

H|--0-0--|-0-0-0-|
G|-------|-------|
D|-------|-------|
A|-------|-------|
E|-4-4-4-|--4-4--|

Искра света,

H|--0-0--|-0-0-0-|
G|-------|-------|
D|-2-2-2-|--2-2--|

Фейерверк.

H|--0-0--|-0-0-0-|
G|-------|-------|
D|-------|-------|
A|-------|-------|
E|-4-4-4-|--4-4--|

Вспыхнул где-то

H|--0-0--|-0-0---|
G|-------|----3--|
D|-2-2-2-|--2--2-|

И померк, сгорел,

G|--3-|--3--|----|-----|
D|-1--|-1-1-|-2--|-2-2-|
A|----|-----|--4-|--4--|

Ярким огнем дотла.
Успел кто-то сказать
Звезда.

Он был один,
Устало ждал ее шагов.
И бездна льдин,
Его расширенных зрачков.
Смотрела вверх,
В лицо сверкающей луне,
Он слышал смех,
И умирал на самом дне.

Она давно спала,
В ней теплился рассвет.
И таяла луна,
И бледный дымный след.

Припев.


Другие новости по теме:

  • Аккорды Конец Фильма - На Луне
  • Аккорды 7Б - Некрещеная луна
  • Аккорды Ночные снайперы - Рубеж
  • Аккорды Сплин - Звезда рок-н-ролла
  • Аккорды Алиса - Перекресток

  •  
     
     
    Популярные статьи
  • Чайф - Теория струн
  • Александр Балунов - Песни о любви и дружбе
  • Александр Иванов - Этой весной...
  • Адаптация - Radio Resistance
  • Владимир Кузьмин - Рокер-3. Закрытие сезона
  • Шмели - Мизантропия
  • Noize MC - Царь горы

  •  
    Русский рок от "А" до "Я". 2010-2017