скачать рок Русский рок от А до Я скачать рок
   
 
 
Навигация
Главная Истории групп Рок-библиотека Рок-календарь Рок-юмор mp3 Музыкальный софт Интересные ссылки Обратная связь Благодарности

Аккорды
А Б В Г Д Е
Ж З И К Л М
Н О П Р С Т
У Ф Х Ч Ш Ы
*
Э Ю Я 0-9
*

Таблица аккордов


GTP
А Б В Г Д Е
Ж З И К Л М
Н О П Р С Т
У Ф Х Ч Ш Ы
*
Э Ю Я 0-9
*

F.A.Q. по Guitar Pro 4


Опрос
Как давно вы слушаете русский рок?

 
Немного рекламы
 

 
Аккорды Гарик Сукачев - Напои меня водой

Аккорды Гарик Сукачев - Напои меня водой


Вступление:
F C
e|------------------|---------------------|--------------------|
H|------------------|--10---------13--12--|--------------------|
G|----------------9-|---------------------|--12--------------9-|
D|---------7-9-10---|---------------------|----------9-10-12---|
A|------------------|---------------------|--------------------|
E|------------------|---------------------|--------------------|

Dm F G Am
e|---------------------|----------------------|---------------------|----------------------|
H|---------------------|----------------------|---------------------|----------------------|
G|--7------------------|----------------------|--7------------------|----------------------|
D|---------------10----|--10-9-7--------------|---------------10----|--10-9-7--------------|
A|---------------------|----------------------|---------------------|----------------------|
E|---------------------|----------------------|---------------------|----------------------|

F C
Напои меня водой твоей любви,
Dm F G Am
Чистой, как душа младенца.
Прилети ко мне стрелой, восхитительной стрелой
В сердце, в сердце.

Dm G C C/H Am
Я читаю твой шифр, скрытый в словах
На бледном бумажном листке.
Я закрываю глаза и чувствую ветер,
Dm Dm/E Dm/F Dm/G G
Забытый тобой на песке.

Проигрыш.

Ты видишь, как пляшут огни индейских костров,
На лицах вождей умерших племен,
Там, где замкнулся круг, где волос пронзило перо,
Я танцую танец огня.

Погляди на меня и белым крылом,
Птицы Сирин коснись ручья,
И рассвет поцелует зарю,
А заря разбудит свирель и позовет меня.

Проигрыш.

Dm Dm/E Dm/F Dm/G G
Я слышу твой звук,
C Am C Am
Чувствую запах твой.
Dm Dm/E Dm/F Dm/G G C
Я сплетаю сеть из пугливых нот,
E7
Чтоб ловить твой смех.

Проигрыш.

Напои меня водой твоей любви,
Твоей любви, твоей любви.
Прилети ко мне стрелой твоей любви,
Твоей любви, твоей любви!


Другие новости по теме:

  • Аккорды Юта - Колыбельная
  • Аккорды Воскресение - Сотворю тебе мир
  • Аккорды Аквариум – Слишком много любви
  • Аккорды Торба-на-Круче - Доживи до любви
  • Аккорды Сплин - Маяк

  •  
     
     
    Популярные статьи
  • Чайф - Теория струн
  • Александр Балунов - Песни о любви и дружбе
  • Александр Иванов - Этой весной...
  • Адаптация - Radio Resistance
  • Владимир Кузьмин - Рокер-3. Закрытие сезона
  • Шмели - Мизантропия
  • Noize MC - Царь горы

  •  
    Русский рок от "А" до "Я". 2010-2017