скачать рок Русский рок от А до Я скачать рок
   
 
 
Навигация
Главная Истории групп Рок-библиотека Рок-календарь Рок-юмор mp3 Музыкальный софт Интересные ссылки Обратная связь Благодарности

Аккорды
А Б В Г Д Е
Ж З И К Л М
Н О П Р С Т
У Ф Х Ч Ш Ы
*
Э Ю Я 0-9
*

Таблица аккордов


GTP
А Б В Г Д Е
Ж З И К Л М
Н О П Р С Т
У Ф Х Ч Ш Ы
*
Э Ю Я 0-9
*

F.A.Q. по Guitar Pro 4


Опрос
Как давно вы слушаете русский рок?

 
Немного рекламы
 

 
Аккорды Алиса - Веретено

Аккорды Алиса - Веретено


V1:

e|-17---15---17---15--------17---15---17---15-------|
H|---------------------15-----------------------15--|

e|-13---11---13---11--------13---11---13---11-------|
H|---------------------11-----------------------11--|

V2:

e|--------------------------------5----3-------|
H|--3---------------------------------------3--|
G|-------0----2----3----5----7-----------------|

e|--5----3----------------------|
H|------------1---------1-------|
G|-----------------3---------3--|

V3:

e|-----|--5--|--3--|-----|-----|-----|--5--|--6--|--5--|
H|--3--|-----|-----|--3--|-----|--3--|-----|-----|-----|
G|-----|-----|-----|-----|--5--|-----|-----|-----|-----|

e|------10----8-------------------6----8----6--|
H|--8--------------8---------------------------|
G|----------------------7----8-----------------|

Вступление:

Gm Cm F(VIII) Dm(V)


V1 2 раза

Gm Cm F Dm
Облака, гонит осень туман,
Над водой золотой караван,
По лесам заплутали дожди,
С ними я, до капели не жди.

Припев:

Gm Cm F Dm
Опять игра, опять кино, снова выход на бис.
Плетет судьбу веретено за чертою кулис.
Когда-нибудь замедлить бег, и уже не спеша
Увидеть, как берет разбег душа.

Проигрыш: V2 2 раза

Снег летит, кружит время метель,
Над землей белая канитель.
По весне ливни ринуться в бой,
С ними я возвращаюсь домой.

Припев.

Проигрыш: V3 2 раза

Припев.

Проигрыш: V1 2 раза

Соло для припева:

G|-5--7--5--7--5--7--5--7-|
Опять игра,
G|-5--7--5--7--5--7--5--7-|
Опять кино,
G|-5--7--5--7--5--7--5--7-|
Снова выход на бис.
G|-8--10--8--10--8--10--8--10-|


Другие новости по теме:

  • Аккорды Сектор Газа - Аванс
  • Аккорды Чайф - 17 лет
  • Аккорды Уматурман - Ад
  • Аккорды Чиж & Co - Снова поезд
  • Аккорды Кино - Сосны на морском берегу

  •  
     
     
    Популярные статьи
  • Виктор Цой и группа Кино - 55 (3CD)
  • Танцы Минус - Три
  • Дельфин - 97 01
  • Территория Отчуждения - Брать живьём!
  • 5'nizza - КУ
  • Velvet - Отчёт
  • Станционный Смотритель - СтереоС
  • Зимавсегда - Всеоружие
  • Фаэтон - Знак проклятья

  •  
    Русский рок от "А" до "Я". 2010-2017