скачать рок Русский рок от А до Я скачать рок
   
 
 
Навигация
Главная Истории групп Рок-библиотека Рок-календарь Рок-юмор mp3 Музыкальный софт Интересные ссылки Обратная связь Благодарности

Аккорды
А Б В Г Д Е
Ж З И К Л М
Н О П Р С Т
У Ф Х Ч Ш Ы
*
Э Ю Я 0-9
*

Таблица аккордов


GTP
А Б В Г Д Е
Ж З И К Л М
Н О П Р С Т
У Ф Х Ч Ш Ы
*
Э Ю Я 0-9
*

F.A.Q. по Guitar Pro 4


Опрос
Как давно вы слушаете русский рок?

 
Немного рекламы
 

 
Аккорды Ляпис Трубецкой - Розочка

Аккорды Ляпис Трубецкой - Розочка


Вступление:

E Am E Am Asus4 Am
E Am Asus4 Am


E
e|---------0------------------3---1------|
H|-------------3------------3---3---3-3--|
G|-----1---------1-1------1----------1---|
D|---2---2---2----2-----2----------------|
A|---------------------------------------|
E|-0------------------0------------------|

Am
H|-----1---3---1---------1-1-/3--3-/5--5-/6-6--|
G|---2---2---2---2-2----2-2--/4-4--/5-5--/7-7--|
D|---------------------------------------------|
A|-0--------------0---0------------------------|

E Am
Утро принесет неслышные шаги,
E Am
И ты войдешь, прошу тебя не лги.
A C#m
Тебе я отворю сады моей весны,
A B
Тебе я подарю моей любви цветы...

Припев:

E G#7 C#m A
Розочку подарил-а-а-а-а...
Алый цветок,
Розочку подарил-а-а-а-а...
Алый цветок...

Проигрыш:

E Am Asus4 Am
E Am Asus4 Am


Моя мечта сбылась, и ты пришла как сон,
Слеза оборвалась, в груди рождая стон.
Букет прекрасных роз, как символ красоты,
Великолепных грез достойна только ты!

Припев.

Проигрыш:

E Am E Am A C#m A B


Розы как заря рождают новый день,
Объятья нежных губ на ночь бросают тень.
Меж нами что-то есть, в твоих руках бокал
Прекрасного вина бухай я все сказал!

Припев.

E G#7 C#m A E G#7 C#m A
H|------------------------7---------7b9r7-------------7--|
G|-9---9-9-8-8---9--9--9----9-9---9-------8---9---9-9--9-|


Другие новости по теме:

  • Аккорды Ляпис Трубецкой - Дружбан
  • Аккорды Ляпис Трубецкой - Русалки
  • Аккорды Смысловые Галлюцинации - Все под контролем
  • Аккорды Ляпис Трубецкой - Юность
  • Аккорды Ляпис Трубецкой - Ты кинула

  •  
     
     
    Популярные статьи

     
    Русский рок от "А" до "Я". 2010-2017