скачать рок Русский рок от А до Я скачать рок
   
 
 
Навигация
Главная Истории групп Рок-библиотека Рок-календарь Рок-юмор mp3 Музыкальный софт Интересные ссылки Обратная связь

Аккорды
А Б В Г Д Е
Ж З И К Л М
Н О П Р С Т
У Ф Х Ч Ш Ы
*
Э Ю Я 0-9
*

Таблица аккордов


GTP
А Б В Г Д Е
Ж З И К Л М
Н О П Р С Т
У Ф Х Ч Ш Ы
*
Э Ю Я 0-9
*

F.A.Q. по Guitar Pro 4


Опрос
Как давно вы слушаете русский рок?

 
Немного рекламы
 

 
Аккорды Ногу Свело - Наши юные смешные голоса

Аккорды Ногу Свело - Наши юные смешные голоса


Вступление:

e|---0---------------------------------------------------|
H|-------3-1-0-------------------------------------------|
G|--2----------------------------------------------------|
D|------5---3-2-0----------------------------------------|
A|-0---0---------3---3-------3---5---3-2-0-----3---2-0---|
E|------------------3---3-------3-0---0-----4------------|

e|---0-----------------------------------------------------|
H|-------3-1-0---------------------------------------------|
G|--2------------------------------------------------------|
D|------5---3-2-0---------5-----5---5-----5----------------|
A|-0---0---------3---3-------3---5-----5---------5-----5---|
E|------------------3---3-----3---3-----3-----4------------|


Am C G Em
В комнате искусственного света
Am C G
Мы лежим на кафельном столе,
И в лучах искусственного лета
Раны застывают как желе.

Припев:

Am C G Em
Люди больше не услышат наши юные смешные голоса,
Am C G
Теперь их слышат только небеса,
Люди никогда не вспомнят наши звонкие смешные имена,
Теперь их помнит только тишина.

Злой маньяк гуляет на свободе,
Чтобы жертву новую найти,
Он решает, что сегодня в моде
Странника последнего пути.

Припев.

Ляжем как продукты в холодильник,
И обнявшись нежно, там уснем,
На прощанье нам споет светильник,
Улыбнется кварцевым огнем.

Припев.



Другие новости по теме:

  • Ногу Свело! - Обратная сторона ноги
  • Чартова Дюжина vol.1 скачать mp3
  • Аккорды Ногу Свело - Наши юные смешные голоса
  • Аккорды Ногу Свело - (Белые) Каллы
  • Ногу Свело - Откровенные фотографии скачать mp3

  •  
     
     

    Популярные статьи

     
    Русский рок от "А" до "Я". 2010