скачать рок Русский рок от А до Я скачать рок
   
 
 
Навигация
Главная Истории групп Рок-библиотека Рок-календарь Рок-юмор mp3 Музыкальный софт Интересные ссылки Обратная связь

Аккорды
А Б В Г Д Е
Ж З И К Л М
Н О П Р С Т
У Ф Х Ч Ш Ы
*
Э Ю Я 0-9
*

Таблица аккордов


GTP
А Б В Г Д Е
Ж З И К Л М
Н О П Р С Т
У Ф Х Ч Ш Ы
*
Э Ю Я 0-9
*

F.A.Q. по Guitar Pro 4


Опрос
Как давно вы слушаете русский рок?

 
Немного рекламы
 

 
Аккорды Кирилл Комаров - Перекати-поле

Аккорды Кирилл Комаров - Перекати-поле


Хошь верь, хошь не верь -
Кто-то ночью постучал мне в дверь:
"Тук-тук, пусти на ночлег,
Я не зверь и не лихой человек,
А я - перекати-поле,
Я - перемели-боль...
"

Туман, темень, ночь,
И с перепугу я прогнал его прочь.
А он только дунул в ответ -
Я оглянулся, а дома и нет,
И вот я - перекати-поле,
Я - перемели-боль,
Я - перемоги-горе,
Я - перекатная голь!

Я бос, я тёмен и нищ,
Я замёрз среди пепелищ.
Мой путь - от избы до избы,
Да мне нигде моей беды не избыть,

Ведь
Я - перекати-поле,
Я - перемели-боль,
Я - перемоги-горе,
Я - перекатная голь!

Хошь верь, хошь не верь,
Но я теперь стучусь в твою дверь:
Открой, пусти на ночлег,
Ведь я такой же, как и ты, человек!

Просто я - перекати-поле,
Я - перемели-боль,
Я - перемоги-горе,
Я - перекатная голь!

Хошь верь, хошь не верь
Я - перекати-поле

Однажды кто-то постучится в дверь
Я - перемели-боль

Хошь верь, хошь не верь
Я - перемоги-горе

Однажды кто-то постучится в дверь
Я - перекатная голь!

Я - перекати-поле...
Я - перекати-поле...

Я - перекати-поле...

Am E Am E
e|----5---|----3---|----5---|----3---|
H|----5---|----5---|----5---|----5---|
G|----5---|----4---|----5---|----4---|
D|--------|--------|--------|--------|
A|0-------|--------|0-------|--------|
E|--------|0-------|--------|0-------|
Хошь верь, хошь не верь --

C G D Em
e|----3---|----3---|----2---|----0---|
H|----5---|----3---|----3---|----0---|
G|----5---|----4---|----2---|----0---|
D|--------|--------|0-------|2-------|
A|3-------|--------|--------|--------|
E|--------|3-------|--------|--------|
Кто-то ночью постучал мне в дверь и так далее

Аm
e|----5---|----8---|----5---|----8---|
H|----5---|----5---|----5---|----5---|
G|----5---|----5---|----5---|----5---|
D|--------|--------|--------|--------|
A|0-------|0-------|0-------|0-------|
E|--------|--------|--------|--------|
А я, я, я, я перекати -

Аm Еm Am Em
e|----5---|----3---|----5---|----3---|
H|----5---|----5---|----5---|----5---|
G|----5---|----4---|----5---|----4---|
D|--------|--------|--------|--------|
A|0-------|--------|0-------|--------|
E|--------|0-------|--------|0-------|
Поле...



Другие новости по теме:

  • Кирилл Комаров Бэнд - Опыты с живым электричеством скачать mp3
  • Кирилл Комаров - Парашютисты глазами птиц скачать mp3
  • Кино - Кино в кино скачать mp3
  • Аккорды Чиж & Co - Hoochie Coochie Man
  • Аккорды Кино - Алюминиевые огурцы

  •  
     
     

    Популярные статьи

     
    Русский рок от "А" до "Я". 2010