скачать рок Русский рок от А до Я скачать рок
   
 
 
Навигация
Главная Истории групп Рок-библиотека Рок-календарь Рок-юмор mp3 Музыкальный софт Интересные ссылки Обратная связь Благодарности

Аккорды
А Б В Г Д Е
Ж З И К Л М
Н О П Р С Т
У Ф Х Ч Ш Ы
*
Э Ю Я 0-9
*

Таблица аккордов


GTP
А Б В Г Д Е
Ж З И К Л М
Н О П Р С Т
У Ф Х Ч Ш Ы
*
Э Ю Я 0-9
*

F.A.Q. по Guitar Pro 4


Опрос
Как давно вы слушаете русский рок?

 
Немного рекламы
Виагра купить виагру.
 

 
Аккорды Кирилл Комаров - Иволга

Аккорды Кирилл Комаров - Иволга


Шёл я домой, шёл дорогой родной,
Как пролетала тут птица-иволга да над моей головой.
А я возьми да спроси, что слыхать на Руси.
Порассказала мне птица иволга - хоть святых выноси.

Припев:

Ой, парень, иди не спеши,
У тебя дома, чай, нет ни души,
Шиши да мыши - вот и все барыши.

Ой, ты, иволга, ложь, вечно попусту врешь,
Да только зря ты дразнишь-куражишься, так меня не проймешь.
Я стрелец-удалец, у меня дома и мать и отец,
Да еще невеста любимая - с ней пойду под венец.

Припев:

Ой, парень, аж той весной
Твоя невеста стала женой,
Да не твоей, а чужой.

Ой ты, иволга-ложь, что ни слово, то нож,
Уж больно зло загибаешь ты, больно круто берешь.
Ну а хоть бы и так, так то беда на пятак,
А я на рубь с отцом выпью водочки - он в энтом деле мастак.

Припев:

Ой, парень, уж минул год,
Как твой отец сел на пароход
Да и уплыл от бед и хлопот.

Ой ты, иволга-ложь, твой напев нехорош.
Только голос твой, мне почудилось, на родимый похож.
Ты дай мне честный ответ, это правда всё али нет,
И что стряслось с моей матерью после всех этих бед.

Припев:

Ой, парень, зачем мне врать,
Твоя мать устала горевать,
Стала иволгой, иволгой, иволгой
Твоя мать.

Am C/Am Am C/Am - 2 раза
e|--------|--------|--------|--------|
H|----1---|----1---|----1---|----1---|
G|--2---2-|--2---2-|--2---2-|--2---2-|
D|--------|--------|--------|--------|
A|0-------|3-------|0-------|3-------|
E|--------|--------|--------|--------|
Шёл я домой, шёл дорогой родной,

Em G Em G
e|--------|--------|--------|--------|
H|----0---|----0---|----0---|-----0--|
G|--0---0-|--0---0-|--0---0-|-0----0-|
D|2-------|--------|2-------|--------|
A|--------|--------|--------|--------|
E|--------|3-------|--------|3-------|
Как пролетала тут птица-иволга

F7 E Am
e|--------|--------|--------|--------|
H|----3---|----0---|----1---|----1---|
G|--2---2-|--1---1-|--2---2-|--2---2-|
D|3-------|2-------|--------|--------|
A|--------|--------|0-------|0-------|
E|--------|--------|--------|--------|
да над моей головой

и так далее

D Am D Am - 2 раза
e|--------|--------|--------|--------|
H|----3---|----1---|----3---|----1---|
G|--2---2-|--2---2-|--2---2-|--2---2-|
D|0-------|--------|0-------|--------|
A|--------|0-------|--------|0-------|
E|--------|--------|--------|--------|
Ой, парень, иди не спеши,
У тебя дома, чай, нет ни души,

С7 Н7
e|--------|0-------|--------|2-------|
H|----1---|----1---|----0---|----0---|
G|--3---3-|--3---3-|--2---2-|--2---2-|
D|--------|--------|--------|--------|
A|3-------|--------|2-------|--------|
E|--------|--------|--------|--------|
Шиши да мыши - вот и все барыши


Другие новости по теме:

  • Кирилл Комаров - Вот он я скачать mp3
  • Аккорды Воскресение - Хороший парень
  • Аккорды Инструкция по выживанию - Иволга
  • Аккорды Чайф - Белая ворона
  • Аккорды Наутилус Помпилиус - Бедная птица

  •  
     
     
    Популярные статьи
  • Пилот - Двадцатничек!
  • Brutto - Рокі
  • 7000$ - Путь слабака или книга лишнего человека
  • Вадим Самойлов - На Берлин (Single)
  • КняZz - Узники долины снов
  • Зоя Ященко и группа Белая Гвардия - Венеция
  • Lumen - Хроника бешеных дней
  • Легион - Двойная звезда

  •  
    Русский рок от "А" до "Я". 2010-2017