скачать рок Русский рок от А до Я скачать рок
   
 
 
Навигация
Главная Истории групп Рок-библиотека Рок-календарь Рок-юмор mp3 Музыкальный софт Интересные ссылки Обратная связь Благодарности

Аккорды
А Б В Г Д Е
Ж З И К Л М
Н О П Р С Т
У Ф Х Ч Ш Ы
*
Э Ю Я 0-9
*

Таблица аккордов


GTP
А Б В Г Д Е
Ж З И К Л М
Н О П Р С Т
У Ф Х Ч Ш Ы
*
Э Ю Я 0-9
*

F.A.Q. по Guitar Pro 4


Опрос
Как давно вы слушаете русский рок?

 
Немного рекламы
 

 
Аккорды Ленинград - Бумер

Аккорды Ленинград - Бумер


Вступление:

Em D C H
Em D C H
С D C H


Соло:

e|----------------5-7-------------------------------------------------|
H|-8-7-8--8-7-8-8-----7-5-7--7-5-7--5-3-5--5-3-5--5-7-8--4-2-4--4-2-4-|

e|-----------5-7----------------|-----------------------------|
H|----8-8--8-----10-8-10-10-8-10|----8-8--8--10-12-12~-10-8-7-|
G|--5---------------------------|--5--------------------------|

Мобильник:

e|-------------------------------7-|
H|----8--8---8-10-8-10-8-10-8-10---|
G|--9------9-----------------------|
h1

Другие новости по теме:

  • Ленинград - Бумер 2 (Неофициальный саундтрек) скачать mp3
  • Аккорды Ленинград - Дикий мужчина
  • Аккорды Ленинград - Мы идём
  • Аккорды Ленинград - WWW
  • Аккорды Сплин - Ленинград-Амстердам

  •  
     
     
    Популярные статьи
  • ДДТ - История звука
  • Мы вышли из кино. Трибьют Кино
  • Браво - Бравоспектива
  • Тараканы! - Larger Than… LIVE 25th Anniversary Show (2CD)
  • Слот - 15 (The Best Of)
  • Маша и Медведи - Мира война (Single)
  • 7Б - Солнцу решать
  • СерьГа - Приметы

  •  
    Русский рок от "А" до "Я". 2010-2017