скачать рок Русский рок от А до Я скачать рок
   
 
 
Навигация
Главная Истории групп Рок-библиотека Рок-календарь Рок-юмор mp3 Музыкальный софт Интересные ссылки Обратная связь

Аккорды
А Б В Г Д Е
Ж З И К Л М
Н О П Р С Т
У Ф Х Ч Ш Ы
*
Э Ю Я 0-9
*

Таблица аккордов


GTP
А Б В Г Д Е
Ж З И К Л М
Н О П Р С Т
У Ф Х Ч Ш Ы
*
Э Ю Я 0-9
*

F.A.Q. по Guitar Pro 4


Опрос
Как давно вы слушаете русский рок?

 
Немного рекламы
 

 
Аккорды Наутилус Пампилиус - Прогулки по воде

Аккорды Наутилус Пампилиус - Прогулки по воде


Вступление:

Em H7
e|-7--7--7-----------7--7--7-----7-----5--5--5-----------5--5--5-----5-----|
H|-8--------8--8--8-----------8-----8--7--------7--7--7-----------7-----7--|
G|-9-----------------------------------8-----------------------------------|

Am Em
e|-5--5--5-----------5--5--5-----5-----------------------------------7-----|
H|-5--------5--5--5-----------5-----5--8--8--8--8--7--5--8--8--8--8-----8--|
G|-5-----------------------------------------------------------------------|

G D Am Em
e|-7-----7h8------10-10---8\7-5--------5-----8--8\7---5--------------------|
H|-8-----------------------------------5-----------------8\7--5------------|
G|-7-----------------------------------5-----------------------------------|
D|-5-----------------------------------7-----------------------------------|

G D H7 H-9 (H7)
e|----7-----7--------------------------------------------------------------|
H|-8-----8-----------------10----10--------10---10---10-----7-----7----(7)-|
G|-------------------12\11----11-------------(11)-------------(8)---(8)----|
D|-------------------------------------10\9--------10----9\8---------------|

G D Am Em
e|-7-----7h8------10-10---8\7-5--------5-----8--8\7---5--------------------|
H|-8-----------------------------------5-----------------8\7--5------------|
G|-7-----------------------------------5-----------------------------------|
D|-5-----------------------------------7-----------------------------------|

G D H7 H-9
e|----7-----7-----------------------------------------------------5--------|
H|-8-----8-----------------10----10--------10---10-------------7-----------|
G|-------------------12\11----11-------------(11)-----------8--------------|
D|-------------------------------------10\9--------------7-----------------|

H-9 H7
e|------(5)-8----(5)----5-----5--------------------------------------------|
H|----7--------7-----7-----7-----7-----7-----------------------------------|
G|-8-------------------------------(8)-------------------------------------|
D|-------------------------------------------------------------------------|

Em
С причала рыбачил апостол Андрей,
H7
А Спаситель ходил по воде.
Am
И Андрей доставал из воды пескарей,
Em
А Спаситель погибших людей.

И Андрей закричал: "Я покину причал,
Если ты мне откроешь секрет!
"
А Спаситель ответил: "Спокойно, Андрей!
Никакого секрета здесь нет..."


Припев:

G D
Видишь, там на горе
Am Em
Возвышается крест:
G D
Под ним - десяток солдат,
H7 H-9 H7
Повиси-ка на нём...
G D
А когда надоест,
Am Em
Возвращайся назад
C G
Гулять по воде, гулять по воде,
D H-9 H7
Гулять по воде со мной...

Проигрыш:

G D Am Em G D H7 H-9 H7
G D Am Em C G D H7 H-9 H7


- Но Учитель, на касках блистают рога,
Черный ворон кружит над крестом...
Объясни мне сейчас пожалей дурака,
А распятье оставь на потом.


Онемел Спаситель и топнул в сердцах
По водной глади ногой:
- Ты и верно дурак! - и Андрей в слезах
Побрел с пескарями домой

Припев.

Кода:

Em H7
e|-7--7--7-----------7--7--7-----7-----5--5--5-----------5--5--5-----5-----|
H|-8--------8--8--8-----------8-----8--7--------7--7--7-----------7-----7--|
G|-9-----------------------------------8-----------------------------------|

Am Em
e|-5--5--5-----------5--5--5-----5-----------------------------------7-----|
H|-5--------5--5--5-----------5-----5--8--8--8--8--7--5--8--8--8--8-----8--|
G|-5-----------------------------------------------------------------------|

Em
e|-7-----------------|
H|-8-----------------|
G|-9-----------------|



Другие новости по теме:

  • Андрей Заблудовский (ex-Секрет) - То, что называется Любовь
  • Аккорды Ва-Банкъ - Солдат
  • Аккорды Наутилус Пампилиус - Эта музыка будет вечной
  • Аккорды Наутилус Пампилиус - Тутанхамон
  • Аккорды Наутилус Пампилиус - Русский рок

  •  
     
     

    Популярные статьи

     
    Русский рок от "А" до "Я". 2010